  0
SECTION
  2
HEADER
  9
$ACADVER
  1
AC1015
  9
$ACADMAINTVER
 70
     6
  9
$DWGCODEPAGE
  3
ANSI_1254
  9
$INSBASE
 10
0.0
 20
0.0
 30
0.0
  9
$EXTMIN
 10
0.0
 20
0.0
 30
0.0
  9
$EXTMAX
 10
279.4
 20
215.9
 30
0.0
  9
$LIMMIN
 10
0.0
 20
0.0
  9
$LIMMAX
 10
279.4
 20
215.9
  9
$ORTHOMODE
 70
     0
  9
$REGENMODE
 70
     1
  9
$FILLMODE
 70
     1
  9
$QTEXTMODE
 70
     0
  9
$MIRRTEXT
 70
     1
  9
$LTSCALE
 40
1.0
  9
$ATTMODE
 70
     1
  9
$TEXTSIZE
 40
3.5
  9
$TRACEWID
 40
1.0
  9
$TEXTSTYLE
  7
Standard
  9
$CLAYER
  8
0
  9
$CELTYPE
  6
ByLayer
  9
$CECOLOR
 62
   256
  9
$CELTSCALE
 40
1.0
  9
$DISPSILH
 70
     0
  9
$DIMSCALE
 40
1.0
  9
$DIMASZ
 40
3.5
  9
$DIMEXO
 40
1.0
  9
$DIMDLI
 40
3.75
  9
$DIMRND
 40
0.0
  9
$DIMDLE
 40
0.0
  9
$DIMEXE
 40
1.0
  9
$DIMTP
 40
0.0
  9
$DIMTM
 40
0.0
  9
$DIMTXT
 40
3.5
  9
$DIMCEN
 40
2.5
  9
$DIMTSZ
 40
0.0
  9
$DIMTOL
 70
     0
  9
$DIMLIM
 70
     0
  9
$DIMTIH
 70
     1
  9
$DIMTOH
 70
     1
  9
$DIMSE1
 70
     0
  9
$DIMSE2
 70
     0
  9
$DIMTAD
 70
     1
  9
$DIMZIN
 70
     0
  9
$DIMBLK
  1

  9
$DIMASO
 70
     1
  9
$DIMSHO
 70
     1
  9
$DIMPOST
  1

  9
$DIMAPOST
  1

  9
$DIMALT
 70
     0
  9
$DIMALTD
 70
     3
  9
$DIMALTF
 40
0.0393700787
  9
$DIMLFAC
 40
1.0
  9
$DIMTOFL
 70
     1
  9
$DIMTVP
 40
0.0
  9
$DIMTIX
 70
     0
  9
$DIMSOXD
 70
     0
  9
$DIMSAH
 70
     0
  9
$DIMBLK1
  1

  9
$DIMBLK2
  1

  9
$DIMSTYLE
  2
ISO-25
  9
$DIMCLRD
 70
     0
  9
$DIMCLRE
 70
     0
  9
$DIMCLRT
 70
     0
  9
$DIMTFAC
 40
1.0
  9
$DIMGAP
 40
1.524
  9
$DIMJUST
 70
     0
  9
$DIMSD1
 70
     0
  9
$DIMSD2
 70
     0
  9
$DIMTOLJ
 70
     0
  9
$DIMTZIN
 70
     0
  9
$DIMALTZ
 70
     0
  9
$DIMALTTZ
 70
     0
  9
$DIMUPT
 70
     0
  9
$DIMDEC
 70
     2
  9
$DIMTDEC
 70
     2
  9
$DIMALTU
 70
     2
  9
$DIMALTTD
 70
     3
  9
$DIMTXSTY
  7
Standard
  9
$DIMAUNIT
 70
     0
  9
$DIMADEC
 70
     2
  9
$DIMALTRND
 40
0.0
  9
$DIMAZIN
 70
     0
  9
$DIMDSEP
 70
    44
  9
$DIMATFIT
 70
     3
  9
$DIMFRAC
 70
     0
  9
$DIMLDRBLK
  1

  9
$DIMLUNIT
 70
     2
  9
$DIMLWD
 70
    -2
  9
$DIMLWE
 70
    -2
  9
$DIMTMOVE
 70
     0
  9
$LUNITS
 70
     2
  9
$LUPREC
 70
     2
  9
$SKETCHINC
 40
1.0
  9
$FILLETRAD
 40
10.0
  9
$AUNITS
 70
     0
  9
$AUPREC
 70
     2
  9
$MENU
  1
.
  9
$ELEVATION
 40
0.0
  9
$PELEVATION
 40
0.0
  9
$THICKNESS
 40
0.0
  9
$LIMCHECK
 70
     0
  9
$CHAMFERA
 40
0.0
  9
$CHAMFERB
 40
0.0
  9
$CHAMFERC
 40
0.0
  9
$CHAMFERD
 40
0.0
  9
$SKPOLY
 70
     0
  9
$TDCREATE
 40
2459741.591075266
  9
$TDUCREATE
 40
2459741.466075266
  9
$TDUPDATE
 40
2459741.591078924
  9
$TDUUPDATE
 40
2459741.466078924
  9
$TDINDWG
 40
0.0000000116
  9
$TDUSRTIMER
 40
0.0000000116
  9
$USRTIMER
 70
     1
  9
$ANGBASE
 50
0.0
  9
$ANGDIR
 70
     0
  9
$PDMODE
 70
     0
  9
$PDSIZE
 40
-1.0
  9
$PLINEWID
 40
0.0
  9
$SPLFRAME
 70
     0
  9
$SPLINETYPE
 70
     6
  9
$SPLINESEGS
 70
     8
  9
$HANDSEED
  5
254
  9
$SURFTAB1
 70
     6
  9
$SURFTAB2
 70
     6
  9
$SURFTYPE
 70
     6
  9
$SURFU
 70
     6
  9
$SURFV
 70
     6
  9
$UCSBASE
  2

  9
$UCSNAME
  2

  9
$UCSORG
 10
0.0
 20
0.0
 30
0.0
  9
$UCSXDIR
 10
1.0
 20
0.0
 30
0.0
  9
$UCSYDIR
 10
0.0
 20
1.0
 30
0.0
  9
$UCSORTHOREF
  2

  9
$UCSORTHOVIEW
 70
     0
  9
$UCSORGTOP
 10
0.0
 20
0.0
 30
0.0
  9
$UCSORGBOTTOM
 10
0.0
 20
0.0
 30
0.0
  9
$UCSORGLEFT
 10
0.0
 20
0.0
 30
0.0
  9
$UCSORGRIGHT
 10
0.0
 20
0.0
 30
0.0
  9
$UCSORGFRONT
 10
0.0
 20
0.0
 30
0.0
  9
$UCSORGBACK
 10
0.0
 20
0.0
 30
0.0
  9
$PUCSBASE
  2

  9
$PUCSNAME
  2

  9
$PUCSORG
 10
0.0
 20
0.0
 30
0.0
  9
$PUCSXDIR
 10
1.0
 20
0.0
 30
0.0
  9
$PUCSYDIR
 10
0.0
 20
1.0
 30
0.0
  9
$PUCSORTHOREF
  2

  9
$PUCSORTHOVIEW
 70
     0
  9
$PUCSORGTOP
 10
0.0
 20
0.0
 30
0.0
  9
$PUCSORGBOTTOM
 10
0.0
 20
0.0
 30
0.0
  9
$PUCSORGLEFT
 10
0.0
 20
0.0
 30
0.0
  9
$PUCSORGRIGHT
 10
0.0
 20
0.0
 30
0.0
  9
$PUCSORGFRONT
 10
0.0
 20
0.0
 30
0.0
  9
$PUCSORGBACK
 10
0.0
 20
0.0
 30
0.0
  9
$USERI1
 70
     0
  9
$USERI2
 70
     0
  9
$USERI3
 70
     0
  9
$USERI4
 70
     0
  9
$USERI5
 70
     0
  9
$USERR1
 40
0.0
  9
$USERR2
 40
0.0
  9
$USERR3
 40
0.0
  9
$USERR4
 40
0.0
  9
$USERR5
 40
0.0
  9
$WORLDVIEW
 70
     1
  9
$SHADEDGE
 70
     3
  9
$SHADEDIF
 70
    70
  9
$TILEMODE
 70
     1
  9
$MAXACTVP
 70
    64
  9
$PINSBASE
 10
0.0
 20
0.0
 30
0.0
  9
$PLIMCHECK
 70
     0
  9
$PEXTMIN
 10
1.0000000000E+20
 20
1.0000000000E+20
 30
1.0000000000E+20
  9
$PEXTMAX
 10
-1.0000000000E+20
 20
-1.0000000000E+20
 30
-1.0000000000E+20
  9
$PLIMMIN
 10
0.0
 20
0.0
  9
$PLIMMAX
 10
420.0
 20
297.0
  9
$UNITMODE
 70
     0
  9
$VISRETAIN
 70
     1
  9
$PLINEGEN
 70
     0
  9
$PSLTSCALE
 70
     1
  9
$TREEDEPTH
 70
  3020
  9
$CMLSTYLE
  2
Standard
  9
$CMLJUST
 70
     0
  9
$CMLSCALE
 40
20.0
  9
$PROXYGRAPHICS
 70
     1
  9
$MEASUREMENT
 70
     1
  9
$CELWEIGHT
370
    -1
  9
$ENDCAPS
280
     0
  9
$JOINSTYLE
280
     0
  9
$LWDISPLAY
290
     1
  9
$INSUNITS
 70
     4
  9
$HYPERLINKBASE
  1

  9
$STYLESHEET
  1

  9
$XEDIT
290
     1
  9
$CEPSNTYPE
380
     0
  9
$PSTYLEMODE
290
     1
  9
$FINGERPRINTGUID
  2
{3dec3ae2-be72-4f4e-8fd2-d9441b046a65}
  9
$VERSIONGUID
  2
{FAEB1C32-E019-11D5-929B-00C0DF256EC4}
  9
$EXTNAMES
290
     1
  9
$PSVPSCALE
 40
0.0
  9
$OLESTARTUP
290
     0
  0
ENDSEC
  0
SECTION
  2
CLASSES
  0
CLASS
  1
ACDBDICTIONARYWDFLT
  2
AcDbDictionaryWithDefault
  3
ObjectDBX Classes
 90
        0
280
     0
281
     0
  0
CLASS
  1
VISUALSTYLE
  2
AcDbVisualStyle
  3
ObjectDBX Classes
 90
     4095
280
     0
281
     0
  0
CLASS
  1
MATERIAL
  2
AcDbMaterial
  3
ObjectDBX Classes
 90
     1153
280
     0
281
     0
  0
CLASS
  1
SCALE
  2
AcDbScale
  3
ObjectDBX Classes
 90
     1153
280
     0
281
     0
  0
CLASS
  1
TABLESTYLE
  2
AcDbTableStyle
  3
ObjectDBX Classes
 90
     4095
280
     0
281
     0
  0
CLASS
  1
MLEADERSTYLE
  2
AcDbMLeaderStyle
  3
ACDB_MLEADERSTYLE_CLASS
 90
     4095
280
     0
281
     0
  0
CLASS
  1
SUN
  2
AcDbSun
  3
SCENEOE
 90
     1153
280
     0
281
     0
  0
CLASS
  1
ACDBPLACEHOLDER
  2
AcDbPlaceHolder
  3
ObjectDBX Classes
 90
        0
280
     0
281
     0
  0
CLASS
  1
LAYOUT
  2
AcDbLayout
  3
ObjectDBX Classes
 90
        0
280
     0
281
     0
  0
ENDSEC
  0
SECTION
  2
TABLES
  0
TABLE
  2
VPORT
  5
8
330
0
100
AcDbSymbolTable
 70
     1
  0
VPORT
  5
29
330
8
100
AcDbSymbolTableRecord
100
AcDbViewportTableRecord
  2
*Active
 70
     0
 10
0.0
 20
0.0
 11
1.0
 21
1.0
 12
139.7
 22
107.95
 13
0.0
 23
0.0
 14
10.0
 24
10.0
 15
10.0
 25
10.0
 16
0.0
 26
0.0
 36
1.0
 17
0.0
 27
0.0
 37
0.0
 40
215.9
 41
1.2941176471
 42
50.0
 43
0.0
 44
0.0
 50
0.0
 51
0.0
 71
     0
 72
  2000
 73
     1
 74
     3
 75
     0
 76
     0
 77
     0
 78
     0
281
     0
 65
     1
110
0.0
120
0.0
130
0.0
111
1.0
121
0.0
131
0.0
112
0.0
122
1.0
132
0.0
 79
     0
146
0.0
  0
ENDTAB
  0
TABLE
  2
LTYPE
  5
5
330
0
100
AcDbSymbolTable
 70
     6
  0
LTYPE
  5
14
330
5
100
AcDbSymbolTableRecord
100
AcDbLinetypeTableRecord
  2
ByBlock
 70
     0
  3

 72
    65
 73
     0
 40
0.0
  0
LTYPE
  5
15
330
5
100
AcDbSymbolTableRecord
100
AcDbLinetypeTableRecord
  2
ByLayer
 70
     0
  3

 72
    65
 73
     0
 40
0.0
  0
LTYPE
  5
16
330
5
100
AcDbSymbolTableRecord
100
AcDbLinetypeTableRecord
  2
Continuous
 70
     0
  3
Solid line
 72
    65
 73
     0
 40
0.0
  0
LTYPE
  5
6E
330
5
100
AcDbSymbolTableRecord
100
AcDbLinetypeTableRecord
  2
HIDDEN
 70
     0
  3
Hidden __ __ __ __ __ __ __ __ __ __ __ __ __ __
 72
    65
 73
     2
 40
1.905
 49
1.27
 74
     0
 49
-0.635
 74
     0
  0
LTYPE
  5
6F
330
5
100
AcDbSymbolTableRecord
100
AcDbLinetypeTableRecord
  2
PHANTOM
 70
     0
  3
Phantom ______  __  __  ______  __  __  ______
 72
    65
 73
     6
 40
12.7
 49
6.35
 74
     0
 49
-1.27
 74
     0
 49
1.27
 74
     0
 49
-1.27
 74
     0
 49
1.27
 74
     0
 49
-1.27
 74
     0
  0
LTYPE
  5
70
330
5
100
AcDbSymbolTableRecord
100
AcDbLinetypeTableRecord
  2
CENTER
 70
     0
  3
Center ____ _ ____ _ ____ _ ____ _ ____ _ ____
 72
    65
 73
     4
 40
10.16
 49
6.35
 74
     0
 49
-1.27
 74
     0
 49
1.27
 74
     0
 49
-1.27
 74
     0
  0
LTYPE
  5
71
330
5
100
AcDbSymbolTableRecord
100
AcDbLinetypeTableRecord
  2
CENTERX2
 70
     0
  3
Center (2x) ________  __  ________  __  _____
 72
    65
 73
     4
 40
20.32
 49
12.7
 74
     0
 49
-2.54
 74
     0
 49
2.54
 74
     0
 49
-2.54
 74
     0
  0
LTYPE
  5
72
330
5
100
AcDbSymbolTableRecord
100
AcDbLinetypeTableRecord
  2
DOT2
 70
     0
  3
Dot (.5x) ........................................
 72
    65
 73
     2
 40
0.635
 49
0.0
 74
     0
 49
-0.635
 74
     0
  0
ENDTAB
  0
TABLE
  2
LAYER
  5
2
330
0
100
AcDbSymbolTable
 70
    17
  0
LAYER
  5
10
330
2
100
AcDbSymbolTableRecord
100
AcDbLayerTableRecord
  2
0
 70
     0
 62
     7
  6
Continuous
370
    -3
390
F
  0
LAYER
  5
73
330
2
100
AcDbSymbolTableRecord
100
AcDbLayerTableRecord
  2
FORMAT
 70
     0
 62
     7
  6
Continuous
370
    -3
390
F
  0
LAYER
  5
74
330
2
100
AcDbSymbolTableRecord
100
AcDbLayerTableRecord
  2
YARDIMCI_GEOMETRI
 70
     0
 62
    -6
  6
Continuous
290
     0
370
    -3
390
F
  0
LAYER
  5
75
330
2
100
AcDbSymbolTableRecord
100
AcDbLayerTableRecord
  2
SAYFA_CERCEVESI
 70
     0
 62
     7
  6
Continuous
370
    25
390
F
  0
LAYER
  5
76
330
2
100
AcDbSymbolTableRecord
100
AcDbLayerTableRecord
  2
ANTET
 70
     0
 62
     7
  6
Continuous
370
    -3
390
F
  0
LAYER
  5
77
330
2
100
AcDbSymbolTableRecord
100
AcDbLayerTableRecord
  2
OLCU
 70
     0
 62
   150
  6
Continuous
370
    -3
390
F
  0
LAYER
  5
78
330
2
100
AcDbSymbolTableRecord
100
AcDbLayerTableRecord
  2
METIN
 70
     0
 62
    96
  6
Continuous
370
    -3
390
F
  0
LAYER
  5
79
330
2
100
AcDbSymbolTableRecord
100
AcDbLayerTableRecord
  2
BALON
 70
     0
 62
     5
  6
Continuous
370
    -3
390
F
  0
LAYER
  5
7A
330
2
100
AcDbSymbolTableRecord
100
AcDbLayerTableRecord
  2
VURGU
 70
     0
 62
     7
  6
Continuous
370
    -3
390
F
  0
LAYER
  5
7B
330
2
100
AcDbSymbolTableRecord
100
AcDbLayerTableRecord
  2
SILIK
 70
     0
 62
     7
  6
Continuous
370
    -3
390
F
  0
LAYER
  5
7C
330
2
100
AcDbSymbolTableRecord
100
AcDbLayerTableRecord
  2
MODEL
 70
     0
 62
     7
  6
Continuous
370
    -3
390
F
  0
LAYER
  5
7D
330
2
100
AcDbSymbolTableRecord
100
AcDbLayerTableRecord
  2
DETAYLANDıRMA
 70
     0
 62
   190
  6
Continuous
370
    -3
390
F
  0
LAYER
  5
7E
330
2
100
AcDbSymbolTableRecord
100
AcDbLayerTableRecord
  2
TOLERANS
 70
     0
 62
   230
  6
Continuous
370
    -3
390
F
  0
LAYER
  5
7F
330
2
100
AcDbSymbolTableRecord
100
AcDbLayerTableRecord
  2
MERKEZ_CIZGILERI
 70
     0
 62
    30
  6
Continuous
370
    -3
390
F
  0
LAYER
  5
80
330
2
100
AcDbSymbolTableRecord
100
AcDbLayerTableRecord
  2
KESIT-DETAY_CIZGILERI
 70
     0
 62
     7
  6
Continuous
370
    -3
390
F
  0
LAYER
  5
81
330
2
100
AcDbSymbolTableRecord
100
AcDbLayerTableRecord
  2
\U+041E\U+0421\U+0415\U+0412\U+042B\U+0415
 70
     0
 62
     7
  6
Continuous
370
    -3
390
F
  0
LAYER
  5
82
330
2
100
AcDbSymbolTableRecord
100
AcDbLayerTableRecord
  2
\U+0412\U+041E\U+0414\U+042F\U+041D\U+042B\U+0415_\U+0417\U+041D\U+0410\U+041A\U+0418
 70
     0
 62
    11
  6
Continuous
370
    -3
390
F
  0
ENDTAB
  0
TABLE
  2
STYLE
  5
3
330
0
100
AcDbSymbolTable
 70
     1
  0
STYLE
  5
11
330
3
100
AcDbSymbolTableRecord
100
AcDbTextStyleTableRecord
  2
Standard
 70
     0
 40
0.0
 41
1.0
 50
0.0
 71
     0
 42
3.5
  3
txt
  4

  0
ENDTAB
  0
TABLE
  2
VIEW
  5
6
330
0
100
AcDbSymbolTable
 70
     0
  0
ENDTAB
  0
TABLE
  2
UCS
  5
7
330
0
100
AcDbSymbolTable
 70
     0
  0
ENDTAB
  0
TABLE
  2
APPID
  5
9
330
0
100
AcDbSymbolTable
 70
     1
  0
APPID
  5
12
330
9
100
AcDbSymbolTableRecord
100
AcDbRegAppTableRecord
  2
ACAD
 70
     0
  0
ENDTAB
  0
TABLE
  2
DIMSTYLE
  5
A
330
0
100
AcDbSymbolTable
 70
     1
100
AcDbDimStyleTable
  0
DIMSTYLE
105
27
330
A
100
AcDbSymbolTableRecord
100
AcDbDimStyleTableRecord
  2
ISO-25
 70
     0
 41
2.5
 42
0.625
 43
3.75
 44
1.25
 73
     0
 74
     0
 77
     1
 78
     8
140
2.5
141
2.5
143
0.0393700787
147
0.625
171
     3
172
     1
178
     0
271
     2
272
     2
274
     3
278
    44
283
     0
284
     8
340
11
  0
ENDTAB
  0
TABLE
  2
BLOCK_RECORD
  5
1
330
0
100
AcDbSymbolTable
 70
    22
  0
BLOCK_RECORD
  5
1F
330
1
100
AcDbSymbolTableRecord
100
AcDbBlockTableRecord
  2
*Model_Space
340
22
  0
BLOCK_RECORD
  5
1B
330
1
100
AcDbSymbolTableRecord
100
AcDbBlockTableRecord
  2
*Paper_Space
340
1E
  0
BLOCK_RECORD
  5
23
330
1
100
AcDbSymbolTableRecord
100
AcDbBlockTableRecord
  2
*Paper_Space0
340
26
  0
BLOCK_RECORD
  5
AF
330
1
100
AcDbSymbolTableRecord
100
AcDbBlockTableRecord
  2
SW_CENTERMARKSYMBOL_0
340
0
102
{BLKREFS
331
BA
102
}
  0
BLOCK_RECORD
  5
BB
330
1
100
AcDbSymbolTableRecord
100
AcDbBlockTableRecord
  2
SW_CENTERMARKSYMBOL_1
340
0
102
{BLKREFS
331
C6
102
}
  0
BLOCK_RECORD
  5
C7
330
1
100
AcDbSymbolTableRecord
100
AcDbBlockTableRecord
  2
SW_CENTERMARKSYMBOL_2
340
0
102
{BLKREFS
331
D2
102
}
  0
BLOCK_RECORD
  5
D3
330
1
100
AcDbSymbolTableRecord
100
AcDbBlockTableRecord
  2
SW_CENTERMARKSYMBOL_3
340
0
102
{BLKREFS
331
DE
102
}
  0
BLOCK_RECORD
  5
DF
330
1
100
AcDbSymbolTableRecord
100
AcDbBlockTableRecord
  2
SW_CENTERMARKSYMBOL_4
340
0
102
{BLKREFS
331
EA
102
}
  0
BLOCK_RECORD
  5
EB
330
1
100
AcDbSymbolTableRecord
100
AcDbBlockTableRecord
  2
SW_CENTERMARKSYMBOL_5
340
0
102
{BLKREFS
331
F6
102
}
  0
BLOCK_RECORD
  5
F7
330
1
100
AcDbSymbolTableRecord
100
AcDbBlockTableRecord
  2
SW_CENTERMARKSYMBOL_6
340
0
102
{BLKREFS
331
102
102
}
  0
BLOCK_RECORD
  5
103
330
1
100
AcDbSymbolTableRecord
100
AcDbBlockTableRecord
  2
SW_CENTERMARKSYMBOL_7
340
0
102
{BLKREFS
331
10E
102
}
  0
BLOCK_RECORD
  5
10F
330
1
100
AcDbSymbolTableRecord
100
AcDbBlockTableRecord
  2
SW_CENTERMARKSYMBOL_8
340
0
102
{BLKREFS
331
11A
102
}
  0
BLOCK_RECORD
  5
11B
330
1
100
AcDbSymbolTableRecord
100
AcDbBlockTableRecord
  2
SW_CENTERMARKSYMBOL_9
340
0
102
{BLKREFS
331
126
102
}
  0
BLOCK_RECORD
  5
127
330
1
100
AcDbSymbolTableRecord
100
AcDbBlockTableRecord
  2
SW_CENTERMARKSYMBOL_10
340
0
102
{BLKREFS
331
132
102
}
  0
BLOCK_RECORD
  5
133
330
1
100
AcDbSymbolTableRecord
100
AcDbBlockTableRecord
  2
SW_CENTERMARKSYMBOL_11
340
0
102
{BLKREFS
331
13E
102
}
  0
BLOCK_RECORD
  5
13F
330
1
100
AcDbSymbolTableRecord
100
AcDbBlockTableRecord
  2
SW_CENTERMARKSYMBOL_12
340
0
102
{BLKREFS
331
14A
102
}
  0
BLOCK_RECORD
  5
14B
330
1
100
AcDbSymbolTableRecord
100
AcDbBlockTableRecord
  2
SW_CENTERMARKSYMBOL_13
340
0
102
{BLKREFS
331
156
102
}
  0
BLOCK_RECORD
  5
157
330
1
100
AcDbSymbolTableRecord
100
AcDbBlockTableRecord
  2
SW_CENTERMARKSYMBOL_14
340
0
102
{BLKREFS
331
162
102
}
  0
BLOCK_RECORD
  5
163
330
1
100
AcDbSymbolTableRecord
100
AcDbBlockTableRecord
  2
SW_CENTERMARKSYMBOL_15
340
0
102
{BLKREFS
331
16E
102
}
  0
BLOCK_RECORD
  5
16F
330
1
100
AcDbSymbolTableRecord
100
AcDbBlockTableRecord
  2
SW_CENTERMARKSYMBOL_16
340
0
102
{BLKREFS
331
17A
102
}
  0
BLOCK_RECORD
  5
17B
330
1
100
AcDbSymbolTableRecord
100
AcDbBlockTableRecord
  2
SW_CENTERMARKSYMBOL_17
340
0
102
{BLKREFS
331
186
102
}
  0
BLOCK_RECORD
  5
187
330
1
100
AcDbSymbolTableRecord
100
AcDbBlockTableRecord
  2
SW_CENTERMARKSYMBOL_18
340
0
102
{BLKREFS
331
192
102
}
  0
BLOCK_RECORD
  5
193
330
1
100
AcDbSymbolTableRecord
100
AcDbBlockTableRecord
  2
SW_CENTERMARKSYMBOL_19
340
0
102
{BLKREFS
331
19E
102
}
  0
BLOCK_RECORD
  5
19F
330
1
100
AcDbSymbolTableRecord
100
AcDbBlockTableRecord
  2
SW_CENTERMARKSYMBOL_20
340
0
102
{BLKREFS
331
1AA
102
}
  0
ENDTAB
  0
ENDSEC
  0
SECTION
  2
BLOCKS
  0
BLOCK
  5
20
330
1F
100
AcDbEntity
  8
0
100
AcDbBlockBegin
  2
*Model_Space
 70
     0
 10
0.0
 20
0.0
 30
0.0
  3
*Model_Space
  1

  0
ENDBLK
  5
21
330
1F
100
AcDbEntity
  8
0
100
AcDbBlockEnd
  0
BLOCK
  5
1C
330
1B
100
AcDbEntity
 67
     1
  8
0
100
AcDbBlockBegin
  2
*Paper_Space
 70
     0
 10
0.0
 20
0.0
 30
0.0
  3
*Paper_Space
  1

  0
ENDBLK
  5
1D
330
1B
100
AcDbEntity
 67
     1
  8
0
100
AcDbBlockEnd
  0
BLOCK
  5
24
330
23
100
AcDbEntity
  8
0
100
AcDbBlockBegin
  2
*Paper_Space0
 70
     0
 10
0.0
 20
0.0
 30
0.0
  3
*Paper_Space0
  1

  0
ENDBLK
  5
25
330
23
100
AcDbEntity
  8
0
100
AcDbBlockEnd
  0
BLOCK
  5
B0
330
AF
100
AcDbEntity
  8
0
100
AcDbBlockBegin
  2
SW_CENTERMARKSYMBOL_0
 70
     0
 10
0.0
 20
0.0
 30
0.0
  3
SW_CENTERMARKSYMBOL_0
  1

  0
LINE
  5
B2
330
AF
100
AcDbEntity
  8
FORMAT
 62
     0
100
AcDbLine
 10
0.0
 20
0.0
 30
0.0
 11
0.0
 21
2.5
 31
0.0
  0
LINE
  5
B3
330
AF
100
AcDbEntity
  8
FORMAT
 62
     0
100
AcDbLine
 10
0.0
 20
0.0
 30
0.0
 11
-2.5
 21
0.0
 31
0.0
  0
LINE
  5
B4
330
AF
100
AcDbEntity
  8
FORMAT
 62
     0
100
AcDbLine
 10
0.0
 20
0.0
 30
0.0
 11
0.0
 21
-2.5
 31
0.0
  0
LINE
  5
B5
330
AF
100
AcDbEntity
  8
FORMAT
 62
     0
100
AcDbLine
 10
0.0
 20
0.0
 30
0.0
 11
2.5
 21
0.0
 31
0.0
  0
LINE
  5
B6
330
AF
100
AcDbEntity
  8
FORMAT
 62
     0
100
AcDbLine
 10
0.0
 20
5.0
 30
0.0
 11
0.0
 21
341.5
 31
0.0
  0
LINE
  5
B7
330
AF
100
AcDbEntity
  8
FORMAT
 62
     0
100
AcDbLine
 10
-5.0
 20
0.0
 30
0.0
 11
-341.5
 21
0.0
 31
0.0
  0
LINE
  5
B8
330
AF
100
AcDbEntity
  8
FORMAT
 62
     0
100
AcDbLine
 10
0.0
 20
-5.0
 30
0.0
 11
0.0
 21
-341.5
 31
0.0
  0
LINE
  5
B9
330
AF
100
AcDbEntity
  8
FORMAT
 62
     0
100
AcDbLine
 10
5.0
 20
0.0
 30
0.0
 11
341.5
 21
0.0
 31
0.0
  0
ENDBLK
  5
B1
330
AF
100
AcDbEntity
  8
0
100
AcDbBlockEnd
  0
BLOCK
  5
BC
330
BB
100
AcDbEntity
  8
0
100
AcDbBlockBegin
  2
SW_CENTERMARKSYMBOL_1
 70
     0
 10
0.0
 20
0.0
 30
0.0
  3
SW_CENTERMARKSYMBOL_1
  1

  0
LINE
  5
BE
330
BB
100
AcDbEntity
  8
FORMAT
 62
     0
100
AcDbLine
 10
0.0
 20
0.0
 30
0.0
 11
0.0
 21
2.5
 31
0.0
  0
LINE
  5
BF
330
BB
100
AcDbEntity
  8
FORMAT
 62
     0
100
AcDbLine
 10
0.0
 20
0.0
 30
0.0
 11
-2.5
 21
0.0
 31
0.0
  0
LINE
  5
C0
330
BB
100
AcDbEntity
  8
FORMAT
 62
     0
100
AcDbLine
 10
0.0
 20
0.0
 30
0.0
 11
0.0
 21
-2.5
 31
0.0
  0
LINE
  5
C1
330
BB
100
AcDbEntity
  8
FORMAT
 62
     0
100
AcDbLine
 10
0.0
 20
0.0
 30
0.0
 11
2.5
 21
0.0
 31
0.0
  0
LINE
  5
C2
330
BB
100
AcDbEntity
  8
FORMAT
 62
     0
100
AcDbLine
 10
0.0
 20
5.0
 30
0.0
 11
0.0
 21
15.5
 31
0.0
  0
LINE
  5
C3
330
BB
100
AcDbEntity
  8
FORMAT
 62
     0
100
AcDbLine
 10
-5.0
 20
0.0
 30
0.0
 11
-15.5
 21
0.0
 31
0.0
  0
LINE
  5
C4
330
BB
100
AcDbEntity
  8
FORMAT
 62
     0
100
AcDbLine
 10
0.0
 20
-5.0
 30
0.0
 11
0.0
 21
-15.5
 31
0.0
  0
LINE
  5
C5
330
BB
100
AcDbEntity
  8
FORMAT
 62
     0
100
AcDbLine
 10
5.0
 20
0.0
 30
0.0
 11
15.5
 21
0.0
 31
0.0
  0
ENDBLK
  5
BD
330
BB
100
AcDbEntity
  8
0
100
AcDbBlockEnd
  0
BLOCK
  5
C8
330
C7
100
AcDbEntity
  8
0
100
AcDbBlockBegin
  2
SW_CENTERMARKSYMBOL_2
 70
     0
 10
0.0
 20
0.0
 30
0.0
  3
SW_CENTERMARKSYMBOL_2
  1

  0
LINE
  5
CA
330
C7
100
AcDbEntity
  8
FORMAT
 62
     0
100
AcDbLine
 10
0.0
 20
0.0
 30
0.0
 11
0.0
 21
2.5
 31
0.0
  0
LINE
  5
CB
330
C7
100
AcDbEntity
  8
FORMAT
 62
     0
100
AcDbLine
 10
0.0
 20
0.0
 30
0.0
 11
-2.5
 21
0.0
 31
0.0
  0
LINE
  5
CC
330
C7
100
AcDbEntity
  8
FORMAT
 62
     0
100
AcDbLine
 10
0.0
 20
0.0
 30
0.0
 11
0.0
 21
-2.5
 31
0.0
  0
LINE
  5
CD
330
C7
100
AcDbEntity
  8
FORMAT
 62
     0
100
AcDbLine
 10
0.0
 20
0.0
 30
0.0
 11
2.5
 21
0.0
 31
0.0
  0
LINE
  5
CE
330
C7
100
AcDbEntity
  8
FORMAT
 62
     0
100
AcDbLine
 10
0.0
 20
5.0
 30
0.0
 11
0.0
 21
15.5
 31
0.0
  0
LINE
  5
CF
330
C7
100
AcDbEntity
  8
FORMAT
 62
     0
100
AcDbLine
 10
-5.0
 20
0.0
 30
0.0
 11
-15.5
 21
0.0
 31
0.0
  0
LINE
  5
D0
330
C7
100
AcDbEntity
  8
FORMAT
 62
     0
100
AcDbLine
 10
0.0
 20
-5.0
 30
0.0
 11
0.0
 21
-15.5
 31
0.0
  0
LINE
  5
D1
330
C7
100
AcDbEntity
  8
FORMAT
 62
     0
100
AcDbLine
 10
5.0
 20
0.0
 30
0.0
 11
15.5
 21
0.0
 31
0.0
  0
ENDBLK
  5
C9
330
C7
100
AcDbEntity
  8
0
100
AcDbBlockEnd
  0
BLOCK
  5
D4
330
D3
100
AcDbEntity
  8
0
100
AcDbBlockBegin
  2
SW_CENTERMARKSYMBOL_3
 70
     0
 10
0.0
 20
0.0
 30
0.0
  3
SW_CENTERMARKSYMBOL_3
  1

  0
LINE
  5
D6
330
D3
100
AcDbEntity
  8
FORMAT
 62
     0
100
AcDbLine
 10
0.0
 20
0.0
 30
0.0
 11
0.0
 21
2.5
 31
0.0
  0
LINE
  5
D7
330
D3
100
AcDbEntity
  8
FORMAT
 62
     0
100
AcDbLine
 10
0.0
 20
0.0
 30
0.0
 11
-2.5
 21
0.0
 31
0.0
  0
LINE
  5
D8
330
D3
100
AcDbEntity
  8
FORMAT
 62
     0
100
AcDbLine
 10
0.0
 20
0.0
 30
0.0
 11
0.0
 21
-2.5
 31
0.0
  0
LINE
  5
D9
330
D3
100
AcDbEntity
  8
FORMAT
 62
     0
100
AcDbLine
 10
0.0
 20
0.0
 30
0.0
 11
2.5
 21
0.0
 31
0.0
  0
LINE
  5
DA
330
D3
100
AcDbEntity
  8
FORMAT
 62
     0
100
AcDbLine
 10
0.0
 20
5.0
 30
0.0
 11
0.0
 21
15.5
 31
0.0
  0
LINE
  5
DB
330
D3
100
AcDbEntity
  8
FORMAT
 62
     0
100
AcDbLine
 10
-5.0
 20
0.0
 30
0.0
 11
-15.5
 21
0.0
 31
0.0
  0
LINE
  5
DC
330
D3
100
AcDbEntity
  8
FORMAT
 62
     0
100
AcDbLine
 10
0.0
 20
-5.0
 30
0.0
 11
0.0
 21
-15.5
 31
0.0
  0
LINE
  5
DD
330
D3
100
AcDbEntity
  8
FORMAT
 62
     0
100
AcDbLine
 10
5.0
 20
0.0
 30
0.0
 11
15.5
 21
0.0
 31
0.0
  0
ENDBLK
  5
D5
330
D3
100
AcDbEntity
  8
0
100
AcDbBlockEnd
  0
BLOCK
  5
E0
330
DF
100
AcDbEntity
  8
0
100
AcDbBlockBegin
  2
SW_CENTERMARKSYMBOL_4
 70
     0
 10
0.0
 20
0.0
 30
0.0
  3
SW_CENTERMARKSYMBOL_4
  1

  0
LINE
  5
E2
330
DF
100
AcDbEntity
  8
FORMAT
 62
     0
100
AcDbLine
 10
0.0
 20
0.0
 30
0.0
 11
0.0
 21
2.5
 31
0.0
  0
LINE
  5
E3
330
DF
100
AcDbEntity
  8
FORMAT
 62
     0
100
AcDbLine
 10
0.0
 20
0.0
 30
0.0
 11
-2.5
 21
0.0
 31
0.0
  0
LINE
  5
E4
330
DF
100
AcDbEntity
  8
FORMAT
 62
     0
100
AcDbLine
 10
0.0
 20
0.0
 30
0.0
 11
0.0
 21
-2.5
 31
0.0
  0
LINE
  5
E5
330
DF
100
AcDbEntity
  8
FORMAT
 62
     0
100
AcDbLine
 10
0.0
 20
0.0
 30
0.0
 11
2.5
 21
0.0
 31
0.0
  0
LINE
  5
E6
330
DF
100
AcDbEntity
  8
FORMAT
 62
     0
100
AcDbLine
 10
0.0
 20
5.0
 30
0.0
 11
0.0
 21
15.5
 31
0.0
  0
LINE
  5
E7
330
DF
100
AcDbEntity
  8
FORMAT
 62
     0
100
AcDbLine
 10
-5.0
 20
0.0
 30
0.0
 11
-15.5
 21
0.0
 31
0.0
  0
LINE
  5
E8
330
DF
100
AcDbEntity
  8
FORMAT
 62
     0
100
AcDbLine
 10
0.0
 20
-5.0
 30
0.0
 11
0.0
 21
-15.5
 31
0.0
  0
LINE
  5
E9
330
DF
100
AcDbEntity
  8
FORMAT
 62
     0
100
AcDbLine
 10
5.0
 20
0.0
 30
0.0
 11
15.5
 21
0.0
 31
0.0
  0
ENDBLK
  5
E1
330
DF
100
AcDbEntity
  8
0
100
AcDbBlockEnd
  0
BLOCK
  5
EC
330
EB
100
AcDbEntity
  8
0
100
AcDbBlockBegin
  2
SW_CENTERMARKSYMBOL_5
 70
     0
 10
0.0
 20
0.0
 30
0.0
  3
SW_CENTERMARKSYMBOL_5
  1

  0
LINE
  5
EE
330
EB
100
AcDbEntity
  8
FORMAT
 62
     0
100
AcDbLine
 10
0.0
 20
0.0
 30
0.0
 11
0.0
 21
2.5
 31
0.0
  0
LINE
  5
EF
330
EB
100
AcDbEntity
  8
FORMAT
 62
     0
100
AcDbLine
 10
0.0
 20
0.0
 30
0.0
 11
-2.5
 21
0.0
 31
0.0
  0
LINE
  5
F0
330
EB
100
AcDbEntity
  8
FORMAT
 62
     0
100
AcDbLine
 10
0.0
 20
0.0
 30
0.0
 11
0.0
 21
-2.5
 31
0.0
  0
LINE
  5
F1
330
EB
100
AcDbEntity
  8
FORMAT
 62
     0
100
AcDbLine
 10
0.0
 20
0.0
 30
0.0
 11
2.5
 21
0.0
 31
0.0
  0
LINE
  5
F2
330
EB
100
AcDbEntity
  8
FORMAT
 62
     0
100
AcDbLine
 10
0.0
 20
5.0
 30
0.0
 11
0.0
 21
16.5
 31
0.0
  0
LINE
  5
F3
330
EB
100
AcDbEntity
  8
FORMAT
 62
     0
100
AcDbLine
 10
-5.0
 20
0.0
 30
0.0
 11
-16.5
 21
0.0
 31
0.0
  0
LINE
  5
F4
330
EB
100
AcDbEntity
  8
FORMAT
 62
     0
100
AcDbLine
 10
0.0
 20
-5.0
 30
0.0
 11
0.0
 21
-16.5
 31
0.0
  0
LINE
  5
F5
330
EB
100
AcDbEntity
  8
FORMAT
 62
     0
100
AcDbLine
 10
5.0
 20
0.0
 30
0.0
 11
16.5
 21
0.0
 31
0.0
  0
ENDBLK
  5
ED
330
EB
100
AcDbEntity
  8
0
100
AcDbBlockEnd
  0
BLOCK
  5
F8
330
F7
100
AcDbEntity
  8
0
100
AcDbBlockBegin
  2
SW_CENTERMARKSYMBOL_6
 70
     0
 10
0.0
 20
0.0
 30
0.0
  3
SW_CENTERMARKSYMBOL_6
  1

  0
LINE
  5
FA
330
F7
100
AcDbEntity
  8
FORMAT
 62
     0
100
AcDbLine
 10
0.0
 20
0.0
 30
0.0
 11
0.0
 21
2.5
 31
0.0
  0
LINE
  5
FB
330
F7
100
AcDbEntity
  8
FORMAT
 62
     0
100
AcDbLine
 10
0.0
 20
0.0
 30
0.0
 11
-2.5
 21
0.0
 31
0.0
  0
LINE
  5
FC
330
F7
100
AcDbEntity
  8
FORMAT
 62
     0
100
AcDbLine
 10
0.0
 20
0.0
 30
0.0
 11
0.0
 21
-2.5
 31
0.0
  0
LINE
  5
FD
330
F7
100
AcDbEntity
  8
FORMAT
 62
     0
100
AcDbLine
 10
0.0
 20
0.0
 30
0.0
 11
2.5
 21
0.0
 31
0.0
  0
LINE
  5
FE
330
F7
100
AcDbEntity
  8
FORMAT
 62
     0
100
AcDbLine
 10
0.0
 20
5.0
 30
0.0
 11
0.0
 21
16.5
 31
0.0
  0
LINE
  5
FF
330
F7
100
AcDbEntity
  8
FORMAT
 62
     0
100
AcDbLine
 10
-5.0
 20
0.0
 30
0.0
 11
-16.5
 21
0.0
 31
0.0
  0
LINE
  5
100
330
F7
100
AcDbEntity
  8
FORMAT
 62
     0
100
AcDbLine
 10
0.0
 20
-5.0
 30
0.0
 11
0.0
 21
-16.5
 31
0.0
  0
LINE
  5
101
330
F7
100
AcDbEntity
  8
FORMAT
 62
     0
100
AcDbLine
 10
5.0
 20
0.0
 30
0.0
 11
16.5
 21
0.0
 31
0.0
  0
ENDBLK
  5
F9
330
F7
100
AcDbEntity
  8
0
100
AcDbBlockEnd
  0
BLOCK
  5
104
330
103
100
AcDbEntity
  8
0
100
AcDbBlockBegin
  2
SW_CENTERMARKSYMBOL_7
 70
     0
 10
0.0
 20
0.0
 30
0.0
  3
SW_CENTERMARKSYMBOL_7
  1

  0
LINE
  5
106
330
103
100
AcDbEntity
  8
FORMAT
 62
     0
100
AcDbLine
 10
0.0
 20
0.0
 30
0.0
 11
0.0
 21
2.5
 31
0.0
  0
LINE
  5
107
330
103
100
AcDbEntity
  8
FORMAT
 62
     0
100
AcDbLine
 10
0.0
 20
0.0
 30
0.0
 11
-2.5
 21
0.0
 31
0.0
  0
LINE
  5
108
330
103
100
AcDbEntity
  8
FORMAT
 62
     0
100
AcDbLine
 10
0.0
 20
0.0
 30
0.0
 11
0.0
 21
-2.5
 31
0.0
  0
LINE
  5
109
330
103
100
AcDbEntity
  8
FORMAT
 62
     0
100
AcDbLine
 10
0.0
 20
0.0
 30
0.0
 11
2.5
 21
0.0
 31
0.0
  0
LINE
  5
10A
330
103
100
AcDbEntity
  8
FORMAT
 62
     0
100
AcDbLine
 10
0.0
 20
5.0
 30
0.0
 11
0.0
 21
16.5
 31
0.0
  0
LINE
  5
10B
330
103
100
AcDbEntity
  8
FORMAT
 62
     0
100
AcDbLine
 10
-5.0
 20
0.0
 30
0.0
 11
-16.5
 21
0.0
 31
0.0
  0
LINE
  5
10C
330
103
100
AcDbEntity
  8
FORMAT
 62
     0
100
AcDbLine
 10
0.0
 20
-5.0
 30
0.0
 11
0.0
 21
-16.5
 31
0.0
  0
LINE
  5
10D
330
103
100
AcDbEntity
  8
FORMAT
 62
     0
100
AcDbLine
 10
5.0
 20
0.0
 30
0.0
 11
16.5
 21
0.0
 31
0.0
  0
ENDBLK
  5
105
330
103
100
AcDbEntity
  8
0
100
AcDbBlockEnd
  0
BLOCK
  5
110
330
10F
100
AcDbEntity
  8
0
100
AcDbBlockBegin
  2
SW_CENTERMARKSYMBOL_8
 70
     0
 10
0.0
 20
0.0
 30
0.0
  3
SW_CENTERMARKSYMBOL_8
  1

  0
LINE
  5
112
330
10F
100
AcDbEntity
  8
FORMAT
 62
     0
100
AcDbLine
 10
0.0
 20
0.0
 30
0.0
 11
0.0
 21
2.5
 31
0.0
  0
LINE
  5
113
330
10F
100
AcDbEntity
  8
FORMAT
 62
     0
100
AcDbLine
 10
0.0
 20
0.0
 30
0.0
 11
-2.5
 21
0.0
 31
0.0
  0
LINE
  5
114
330
10F
100
AcDbEntity
  8
FORMAT
 62
     0
100
AcDbLine
 10
0.0
 20
0.0
 30
0.0
 11
0.0
 21
-2.5
 31
0.0
  0
LINE
  5
115
330
10F
100
AcDbEntity
  8
FORMAT
 62
     0
100
AcDbLine
 10
0.0
 20
0.0
 30
0.0
 11
2.5
 21
0.0
 31
0.0
  0
LINE
  5
116
330
10F
100
AcDbEntity
  8
FORMAT
 62
     0
100
AcDbLine
 10
0.0
 20
5.0
 30
0.0
 11
0.0
 21
16.5
 31
0.0
  0
LINE
  5
117
330
10F
100
AcDbEntity
  8
FORMAT
 62
     0
100
AcDbLine
 10
-5.0
 20
0.0
 30
0.0
 11
-16.5
 21
0.0
 31
0.0
  0
LINE
  5
118
330
10F
100
AcDbEntity
  8
FORMAT
 62
     0
100
AcDbLine
 10
0.0
 20
-5.0
 30
0.0
 11
0.0
 21
-16.5
 31
0.0
  0
LINE
  5
119
330
10F
100
AcDbEntity
  8
FORMAT
 62
     0
100
AcDbLine
 10
5.0
 20
0.0
 30
0.0
 11
16.5
 21
0.0
 31
0.0
  0
ENDBLK
  5
111
330
10F
100
AcDbEntity
  8
0
100
AcDbBlockEnd
  0
BLOCK
  5
11C
330
11B
100
AcDbEntity
  8
0
100
AcDbBlockBegin
  2
SW_CENTERMARKSYMBOL_9
 70
     0
 10
0.0
 20
0.0
 30
0.0
  3
SW_CENTERMARKSYMBOL_9
  1

  0
LINE
  5
11E
330
11B
100
AcDbEntity
  8
FORMAT
 62
     0
100
AcDbLine
 10
0.0
 20
0.0
 30
0.0
 11
0.0
 21
2.5
 31
0.0
  0
LINE
  5
11F
330
11B
100
AcDbEntity
  8
FORMAT
 62
     0
100
AcDbLine
 10
0.0
 20
0.0
 30
0.0
 11
-2.5
 21
0.0
 31
0.0
  0
LINE
  5
120
330
11B
100
AcDbEntity
  8
FORMAT
 62
     0
100
AcDbLine
 10
0.0
 20
0.0
 30
0.0
 11
0.0
 21
-2.5
 31
0.0
  0
LINE
  5
121
330
11B
100
AcDbEntity
  8
FORMAT
 62
     0
100
AcDbLine
 10
0.0
 20
0.0
 30
0.0
 11
2.5
 21
0.0
 31
0.0
  0
LINE
  5
122
330
11B
100
AcDbEntity
  8
FORMAT
 62
     0
100
AcDbLine
 10
0.0
 20
5.0
 30
0.0
 11
0.0
 21
16.5
 31
0.0
  0
LINE
  5
123
330
11B
100
AcDbEntity
  8
FORMAT
 62
     0
100
AcDbLine
 10
-5.0
 20
0.0
 30
0.0
 11
-16.5
 21
0.0
 31
0.0
  0
LINE
  5
124
330
11B
100
AcDbEntity
  8
FORMAT
 62
     0
100
AcDbLine
 10
0.0
 20
-5.0
 30
0.0
 11
0.0
 21
-16.5
 31
0.0
  0
LINE
  5
125
330
11B
100
AcDbEntity
  8
FORMAT
 62
     0
100
AcDbLine
 10
5.0
 20
0.0
 30
0.0
 11
16.5
 21
0.0
 31
0.0
  0
ENDBLK
  5
11D
330
11B
100
AcDbEntity
  8
0
100
AcDbBlockEnd
  0
BLOCK
  5
128
330
127
100
AcDbEntity
  8
0
100
AcDbBlockBegin
  2
SW_CENTERMARKSYMBOL_10
 70
     0
 10
0.0
 20
0.0
 30
0.0
  3
SW_CENTERMARKSYMBOL_10
  1

  0
LINE
  5
12A
330
127
100
AcDbEntity
  8
FORMAT
 62
     0
100
AcDbLine
 10
0.0
 20
0.0
 30
0.0
 11
0.0
 21
2.5
 31
0.0
  0
LINE
  5
12B
330
127
100
AcDbEntity
  8
FORMAT
 62
     0
100
AcDbLine
 10
0.0
 20
0.0
 30
0.0
 11
-2.5
 21
0.0
 31
0.0
  0
LINE
  5
12C
330
127
100
AcDbEntity
  8
FORMAT
 62
     0
100
AcDbLine
 10
0.0
 20
0.0
 30
0.0
 11
0.0
 21
-2.5
 31
0.0
  0
LINE
  5
12D
330
127
100
AcDbEntity
  8
FORMAT
 62
     0
100
AcDbLine
 10
0.0
 20
0.0
 30
0.0
 11
2.5
 21
0.0
 31
0.0
  0
LINE
  5
12E
330
127
100
AcDbEntity
  8
FORMAT
 62
     0
100
AcDbLine
 10
0.0
 20
5.0
 30
0.0
 11
0.0
 21
16.5
 31
0.0
  0
LINE
  5
12F
330
127
100
AcDbEntity
  8
FORMAT
 62
     0
100
AcDbLine
 10
-5.0
 20
0.0
 30
0.0
 11
-16.5
 21
0.0
 31
0.0
  0
LINE
  5
130
330
127
100
AcDbEntity
  8
FORMAT
 62
     0
100
AcDbLine
 10
0.0
 20
-5.0
 30
0.0
 11
0.0
 21
-16.5
 31
0.0
  0
LINE
  5
131
330
127
100
AcDbEntity
  8
FORMAT
 62
     0
100
AcDbLine
 10
5.0
 20
0.0
 30
0.0
 11
16.5
 21
0.0
 31
0.0
  0
ENDBLK
  5
129
330
127
100
AcDbEntity
  8
0
100
AcDbBlockEnd
  0
BLOCK
  5
134
330
133
100
AcDbEntity
  8
0
100
AcDbBlockBegin
  2
SW_CENTERMARKSYMBOL_11
 70
     0
 10
0.0
 20
0.0
 30
0.0
  3
SW_CENTERMARKSYMBOL_11
  1

  0
LINE
  5
136
330
133
100
AcDbEntity
  8
FORMAT
 62
     0
100
AcDbLine
 10
0.0
 20
0.0
 30
0.0
 11
0.0
 21
2.5
 31
0.0
  0
LINE
  5
137
330
133
100
AcDbEntity
  8
FORMAT
 62
     0
100
AcDbLine
 10
0.0
 20
0.0
 30
0.0
 11
-2.5
 21
0.0
 31
0.0
  0
LINE
  5
138
330
133
100
AcDbEntity
  8
FORMAT
 62
     0
100
AcDbLine
 10
0.0
 20
0.0
 30
0.0
 11
0.0
 21
-2.5
 31
0.0
  0
LINE
  5
139
330
133
100
AcDbEntity
  8
FORMAT
 62
     0
100
AcDbLine
 10
0.0
 20
0.0
 30
0.0
 11
2.5
 21
0.0
 31
0.0
  0
LINE
  5
13A
330
133
100
AcDbEntity
  8
FORMAT
 62
     0
100
AcDbLine
 10
0.0
 20
5.0
 30
0.0
 11
0.0
 21
16.5
 31
0.0
  0
LINE
  5
13B
330
133
100
AcDbEntity
  8
FORMAT
 62
     0
100
AcDbLine
 10
-5.0
 20
0.0
 30
0.0
 11
-16.5
 21
0.0
 31
0.0
  0
LINE
  5
13C
330
133
100
AcDbEntity
  8
FORMAT
 62
     0
100
AcDbLine
 10
0.0
 20
-5.0
 30
0.0
 11
0.0
 21
-16.5
 31
0.0
  0
LINE
  5
13D
330
133
100
AcDbEntity
  8
FORMAT
 62
     0
100
AcDbLine
 10
5.0
 20
0.0
 30
0.0
 11
16.5
 21
0.0
 31
0.0
  0
ENDBLK
  5
135
330
133
100
AcDbEntity
  8
0
100
AcDbBlockEnd
  0
BLOCK
  5
140
330
13F
100
AcDbEntity
  8
0
100
AcDbBlockBegin
  2
SW_CENTERMARKSYMBOL_12
 70
     0
 10
0.0
 20
0.0
 30
0.0
  3
SW_CENTERMARKSYMBOL_12
  1

  0
LINE
  5
142
330
13F
100
AcDbEntity
  8
FORMAT
 62
     0
100
AcDbLine
 10
0.0
 20
0.0
 30
0.0
 11
0.0
 21
2.5
 31
0.0
  0
LINE
  5
143
330
13F
100
AcDbEntity
  8
FORMAT
 62
     0
100
AcDbLine
 10
0.0
 20
0.0
 30
0.0
 11
-2.5
 21
0.0
 31
0.0
  0
LINE
  5
144
330
13F
100
AcDbEntity
  8
FORMAT
 62
     0
100
AcDbLine
 10
0.0
 20
0.0
 30
0.0
 11
0.0
 21
-2.5
 31
0.0
  0
LINE
  5
145
330
13F
100
AcDbEntity
  8
FORMAT
 62
     0
100
AcDbLine
 10
0.0
 20
0.0
 30
0.0
 11
2.5
 21
0.0
 31
0.0
  0
LINE
  5
146
330
13F
100
AcDbEntity
  8
FORMAT
 62
     0
100
AcDbLine
 10
0.0
 20
5.0
 30
0.0
 11
0.0
 21
16.5
 31
0.0
  0
LINE
  5
147
330
13F
100
AcDbEntity
  8
FORMAT
 62
     0
100
AcDbLine
 10
-5.0
 20
0.0
 30
0.0
 11
-16.5
 21
0.0
 31
0.0
  0
LINE
  5
148
330
13F
100
AcDbEntity
  8
FORMAT
 62
     0
100
AcDbLine
 10
0.0
 20
-5.0
 30
0.0
 11
0.0
 21
-16.5
 31
0.0
  0
LINE
  5
149
330
13F
100
AcDbEntity
  8
FORMAT
 62
     0
100
AcDbLine
 10
5.0
 20
0.0
 30
0.0
 11
16.5
 21
0.0
 31
0.0
  0
ENDBLK
  5
141
330
13F
100
AcDbEntity
  8
0
100
AcDbBlockEnd
  0
BLOCK
  5
14C
330
14B
100
AcDbEntity
  8
0
100
AcDbBlockBegin
  2
SW_CENTERMARKSYMBOL_13
 70
     0
 10
0.0
 20
0.0
 30
0.0
  3
SW_CENTERMARKSYMBOL_13
  1

  0
LINE
  5
14E
330
14B
100
AcDbEntity
  8
FORMAT
 62
     0
100
AcDbLine
 10
0.0
 20
0.0
 30
0.0
 11
0.0
 21
2.5
 31
0.0
  0
LINE
  5
14F
330
14B
100
AcDbEntity
  8
FORMAT
 62
     0
100
AcDbLine
 10
0.0
 20
0.0
 30
0.0
 11
-2.5
 21
0.0
 31
0.0
  0
LINE
  5
150
330
14B
100
AcDbEntity
  8
FORMAT
 62
     0
100
AcDbLine
 10
0.0
 20
0.0
 30
0.0
 11
0.0
 21
-2.5
 31
0.0
  0
LINE
  5
151
330
14B
100
AcDbEntity
  8
FORMAT
 62
     0
100
AcDbLine
 10
0.0
 20
0.0
 30
0.0
 11
2.5
 21
0.0
 31
0.0
  0
LINE
  5
152
330
14B
100
AcDbEntity
  8
FORMAT
 62
     0
100
AcDbLine
 10
0.0
 20
5.0
 30
0.0
 11
0.0
 21
16.5
 31
0.0
  0
LINE
  5
153
330
14B
100
AcDbEntity
  8
FORMAT
 62
     0
100
AcDbLine
 10
-5.0
 20
0.0
 30
0.0
 11
-16.5
 21
0.0
 31
0.0
  0
LINE
  5
154
330
14B
100
AcDbEntity
  8
FORMAT
 62
     0
100
AcDbLine
 10
0.0
 20
-5.0
 30
0.0
 11
0.0
 21
-16.5
 31
0.0
  0
LINE
  5
155
330
14B
100
AcDbEntity
  8
FORMAT
 62
     0
100
AcDbLine
 10
5.0
 20
0.0
 30
0.0
 11
16.5
 21
0.0
 31
0.0
  0
ENDBLK
  5
14D
330
14B
100
AcDbEntity
  8
0
100
AcDbBlockEnd
  0
BLOCK
  5
158
330
157
100
AcDbEntity
  8
0
100
AcDbBlockBegin
  2
SW_CENTERMARKSYMBOL_14
 70
     0
 10
0.0
 20
0.0
 30
0.0
  3
SW_CENTERMARKSYMBOL_14
  1

  0
LINE
  5
15A
330
157
100
AcDbEntity
  8
FORMAT
 62
     0
100
AcDbLine
 10
0.0
 20
0.0
 30
0.0
 11
0.0
 21
2.5
 31
0.0
  0
LINE
  5
15B
330
157
100
AcDbEntity
  8
FORMAT
 62
     0
100
AcDbLine
 10
0.0
 20
0.0
 30
0.0
 11
-2.5
 21
0.0
 31
0.0
  0
LINE
  5
15C
330
157
100
AcDbEntity
  8
FORMAT
 62
     0
100
AcDbLine
 10
0.0
 20
0.0
 30
0.0
 11
0.0
 21
-2.5
 31
0.0
  0
LINE
  5
15D
330
157
100
AcDbEntity
  8
FORMAT
 62
     0
100
AcDbLine
 10
0.0
 20
0.0
 30
0.0
 11
2.5
 21
0.0
 31
0.0
  0
LINE
  5
15E
330
157
100
AcDbEntity
  8
FORMAT
 62
     0
100
AcDbLine
 10
0.0
 20
5.0
 30
0.0
 11
0.0
 21
16.5
 31
0.0
  0
LINE
  5
15F
330
157
100
AcDbEntity
  8
FORMAT
 62
     0
100
AcDbLine
 10
-5.0
 20
0.0
 30
0.0
 11
-16.5
 21
0.0
 31
0.0
  0
LINE
  5
160
330
157
100
AcDbEntity
  8
FORMAT
 62
     0
100
AcDbLine
 10
0.0
 20
-5.0
 30
0.0
 11
0.0
 21
-16.5
 31
0.0
  0
LINE
  5
161
330
157
100
AcDbEntity
  8
FORMAT
 62
     0
100
AcDbLine
 10
5.0
 20
0.0
 30
0.0
 11
16.5
 21
0.0
 31
0.0
  0
ENDBLK
  5
159
330
157
100
AcDbEntity
  8
0
100
AcDbBlockEnd
  0
BLOCK
  5
164
330
163
100
AcDbEntity
  8
0
100
AcDbBlockBegin
  2
SW_CENTERMARKSYMBOL_15
 70
     0
 10
0.0
 20
0.0
 30
0.0
  3
SW_CENTERMARKSYMBOL_15
  1

  0
LINE
  5
166
330
163
100
AcDbEntity
  8
FORMAT
 62
     0
100
AcDbLine
 10
0.0
 20
0.0
 30
0.0
 11
0.0
 21
2.5
 31
0.0
  0
LINE
  5
167
330
163
100
AcDbEntity
  8
FORMAT
 62
     0
100
AcDbLine
 10
0.0
 20
0.0
 30
0.0
 11
-2.5
 21
0.0
 31
0.0
  0
LINE
  5
168
330
163
100
AcDbEntity
  8
FORMAT
 62
     0
100
AcDbLine
 10
0.0
 20
0.0
 30
0.0
 11
0.0
 21
-2.5
 31
0.0
  0
LINE
  5
169
330
163
100
AcDbEntity
  8
FORMAT
 62
     0
100
AcDbLine
 10
0.0
 20
0.0
 30
0.0
 11
2.5
 21
0.0
 31
0.0
  0
LINE
  5
16A
330
163
100
AcDbEntity
  8
FORMAT
 62
     0
100
AcDbLine
 10
0.0
 20
5.0
 30
0.0
 11
0.0
 21
16.5
 31
0.0
  0
LINE
  5
16B
330
163
100
AcDbEntity
  8
FORMAT
 62
     0
100
AcDbLine
 10
-5.0
 20
0.0
 30
0.0
 11
-16.5
 21
0.0
 31
0.0
  0
LINE
  5
16C
330
163
100
AcDbEntity
  8
FORMAT
 62
     0
100
AcDbLine
 10
0.0
 20
-5.0
 30
0.0
 11
0.0
 21
-16.5
 31
0.0
  0
LINE
  5
16D
330
163
100
AcDbEntity
  8
FORMAT
 62
     0
100
AcDbLine
 10
5.0
 20
0.0
 30
0.0
 11
16.5
 21
0.0
 31
0.0
  0
ENDBLK
  5
165
330
163
100
AcDbEntity
  8
0
100
AcDbBlockEnd
  0
BLOCK
  5
170
330
16F
100
AcDbEntity
  8
0
100
AcDbBlockBegin
  2
SW_CENTERMARKSYMBOL_16
 70
     0
 10
0.0
 20
0.0
 30
0.0
  3
SW_CENTERMARKSYMBOL_16
  1

  0
LINE
  5
172
330
16F
100
AcDbEntity
  8
FORMAT
 62
     0
100
AcDbLine
 10
0.0
 20
0.0
 30
0.0
 11
0.0
 21
2.5
 31
0.0
  0
LINE
  5
173
330
16F
100
AcDbEntity
  8
FORMAT
 62
     0
100
AcDbLine
 10
0.0
 20
0.0
 30
0.0
 11
-2.5
 21
0.0
 31
0.0
  0
LINE
  5
174
330
16F
100
AcDbEntity
  8
FORMAT
 62
     0
100
AcDbLine
 10
0.0
 20
0.0
 30
0.0
 11
0.0
 21
-2.5
 31
0.0
  0
LINE
  5
175
330
16F
100
AcDbEntity
  8
FORMAT
 62
     0
100
AcDbLine
 10
0.0
 20
0.0
 30
0.0
 11
2.5
 21
0.0
 31
0.0
  0
LINE
  5
176
330
16F
100
AcDbEntity
  8
FORMAT
 62
     0
100
AcDbLine
 10
0.0
 20
5.0
 30
0.0
 11
0.0
 21
16.5
 31
0.0
  0
LINE
  5
177
330
16F
100
AcDbEntity
  8
FORMAT
 62
     0
100
AcDbLine
 10
-5.0
 20
0.0
 30
0.0
 11
-16.5
 21
0.0
 31
0.0
  0
LINE
  5
178
330
16F
100
AcDbEntity
  8
FORMAT
 62
     0
100
AcDbLine
 10
0.0
 20
-5.0
 30
0.0
 11
0.0
 21
-16.5
 31
0.0
  0
LINE
  5
179
330
16F
100
AcDbEntity
  8
FORMAT
 62
     0
100
AcDbLine
 10
5.0
 20
0.0
 30
0.0
 11
16.5
 21
0.0
 31
0.0
  0
ENDBLK
  5
171
330
16F
100
AcDbEntity
  8
0
100
AcDbBlockEnd
  0
BLOCK
  5
17C
330
17B
100
AcDbEntity
  8
0
100
AcDbBlockBegin
  2
SW_CENTERMARKSYMBOL_17
 70
     0
 10
0.0
 20
0.0
 30
0.0
  3
SW_CENTERMARKSYMBOL_17
  1

  0
LINE
  5
17E
330
17B
100
AcDbEntity
  8
FORMAT
 62
     0
100
AcDbLine
 10
0.0
 20
0.0
 30
0.0
 11
0.0
 21
2.5
 31
0.0
  0
LINE
  5
17F
330
17B
100
AcDbEntity
  8
FORMAT
 62
     0
100
AcDbLine
 10
0.0
 20
0.0
 30
0.0
 11
-2.5
 21
0.0
 31
0.0
  0
LINE
  5
180
330
17B
100
AcDbEntity
  8
FORMAT
 62
     0
100
AcDbLine
 10
0.0
 20
0.0
 30
0.0
 11
0.0
 21
-2.5
 31
0.0
  0
LINE
  5
181
330
17B
100
AcDbEntity
  8
FORMAT
 62
     0
100
AcDbLine
 10
0.0
 20
0.0
 30
0.0
 11
2.5
 21
0.0
 31
0.0
  0
LINE
  5
182
330
17B
100
AcDbEntity
  8
FORMAT
 62
     0
100
AcDbLine
 10
0.0
 20
5.0
 30
0.0
 11
0.0
 21
16.5
 31
0.0
  0
LINE
  5
183
330
17B
100
AcDbEntity
  8
FORMAT
 62
     0
100
AcDbLine
 10
-5.0
 20
0.0
 30
0.0
 11
-16.5
 21
0.0
 31
0.0
  0
LINE
  5
184
330
17B
100
AcDbEntity
  8
FORMAT
 62
     0
100
AcDbLine
 10
0.0
 20
-5.0
 30
0.0
 11
0.0
 21
-16.5
 31
0.0
  0
LINE
  5
185
330
17B
100
AcDbEntity
  8
FORMAT
 62
     0
100
AcDbLine
 10
5.0
 20
0.0
 30
0.0
 11
16.5
 21
0.0
 31
0.0
  0
ENDBLK
  5
17D
330
17B
100
AcDbEntity
  8
0
100
AcDbBlockEnd
  0
BLOCK
  5
188
330
187
100
AcDbEntity
  8
0
100
AcDbBlockBegin
  2
SW_CENTERMARKSYMBOL_18
 70
     0
 10
0.0
 20
0.0
 30
0.0
  3
SW_CENTERMARKSYMBOL_18
  1

  0
LINE
  5
18A
330
187
100
AcDbEntity
  8
FORMAT
 62
     0
100
AcDbLine
 10
0.0
 20
0.0
 30
0.0
 11
0.0
 21
2.5
 31
0.0
  0
LINE
  5
18B
330
187
100
AcDbEntity
  8
FORMAT
 62
     0
100
AcDbLine
 10
0.0
 20
0.0
 30
0.0
 11
-2.5
 21
0.0
 31
0.0
  0
LINE
  5
18C
330
187
100
AcDbEntity
  8
FORMAT
 62
     0
100
AcDbLine
 10
0.0
 20
0.0
 30
0.0
 11
0.0
 21
-2.5
 31
0.0
  0
LINE
  5
18D
330
187
100
AcDbEntity
  8
FORMAT
 62
     0
100
AcDbLine
 10
0.0
 20
0.0
 30
0.0
 11
2.5
 21
0.0
 31
0.0
  0
LINE
  5
18E
330
187
100
AcDbEntity
  8
FORMAT
 62
     0
100
AcDbLine
 10
0.0
 20
5.0
 30
0.0
 11
0.0
 21
16.5
 31
0.0
  0
LINE
  5
18F
330
187
100
AcDbEntity
  8
FORMAT
 62
     0
100
AcDbLine
 10
-5.0
 20
0.0
 30
0.0
 11
-16.5
 21
0.0
 31
0.0
  0
LINE
  5
190
330
187
100
AcDbEntity
  8
FORMAT
 62
     0
100
AcDbLine
 10
0.0
 20
-5.0
 30
0.0
 11
0.0
 21
-16.5
 31
0.0
  0
LINE
  5
191
330
187
100
AcDbEntity
  8
FORMAT
 62
     0
100
AcDbLine
 10
5.0
 20
0.0
 30
0.0
 11
16.5
 21
0.0
 31
0.0
  0
ENDBLK
  5
189
330
187
100
AcDbEntity
  8
0
100
AcDbBlockEnd
  0
BLOCK
  5
194
330
193
100
AcDbEntity
  8
0
100
AcDbBlockBegin
  2
SW_CENTERMARKSYMBOL_19
 70
     0
 10
0.0
 20
0.0
 30
0.0
  3
SW_CENTERMARKSYMBOL_19
  1

  0
LINE
  5
196
330
193
100
AcDbEntity
  8
FORMAT
 62
     0
100
AcDbLine
 10
0.0
 20
0.0
 30
0.0
 11
0.0
 21
2.5
 31
0.0
  0
LINE
  5
197
330
193
100
AcDbEntity
  8
FORMAT
 62
     0
100
AcDbLine
 10
0.0
 20
0.0
 30
0.0
 11
-2.5
 21
0.0
 31
0.0
  0
LINE
  5
198
330
193
100
AcDbEntity
  8
FORMAT
 62
     0
100
AcDbLine
 10
0.0
 20
0.0
 30
0.0
 11
0.0
 21
-2.5
 31
0.0
  0
LINE
  5
199
330
193
100
AcDbEntity
  8
FORMAT
 62
     0
100
AcDbLine
 10
0.0
 20
0.0
 30
0.0
 11
2.5
 21
0.0
 31
0.0
  0
LINE
  5
19A
330
193
100
AcDbEntity
  8
FORMAT
 62
     0
100
AcDbLine
 10
0.0
 20
5.0
 30
0.0
 11
0.0
 21
16.5
 31
0.0
  0
LINE
  5
19B
330
193
100
AcDbEntity
  8
FORMAT
 62
     0
100
AcDbLine
 10
-5.0
 20
0.0
 30
0.0
 11
-16.5
 21
0.0
 31
0.0
  0
LINE
  5
19C
330
193
100
AcDbEntity
  8
FORMAT
 62
     0
100
AcDbLine
 10
0.0
 20
-5.0
 30
0.0
 11
0.0
 21
-16.5
 31
0.0
  0
LINE
  5
19D
330
193
100
AcDbEntity
  8
FORMAT
 62
     0
100
AcDbLine
 10
5.0
 20
0.0
 30
0.0
 11
16.5
 21
0.0
 31
0.0
  0
ENDBLK
  5
195
330
193
100
AcDbEntity
  8
0
100
AcDbBlockEnd
  0
BLOCK
  5
1A0
330
19F
100
AcDbEntity
  8
0
100
AcDbBlockBegin
  2
SW_CENTERMARKSYMBOL_20
 70
     0
 10
0.0
 20
0.0
 30
0.0
  3
SW_CENTERMARKSYMBOL_20
  1

  0
LINE
  5
1A2
330
19F
100
AcDbEntity
  8
FORMAT
 62
     0
100
AcDbLine
 10
0.0
 20
0.0
 30
0.0
 11
0.0
 21
2.5
 31
0.0
  0
LINE
  5
1A3
330
19F
100
AcDbEntity
  8
FORMAT
 62
     0
100
AcDbLine
 10
0.0
 20
0.0
 30
0.0
 11
-2.5
 21
0.0
 31
0.0
  0
LINE
  5
1A4
330
19F
100
AcDbEntity
  8
FORMAT
 62
     0
100
AcDbLine
 10
0.0
 20
0.0
 30
0.0
 11
0.0
 21
-2.5
 31
0.0
  0
LINE
  5
1A5
330
19F
100
AcDbEntity
  8
FORMAT
 62
     0
100
AcDbLine
 10
0.0
 20
0.0
 30
0.0
 11
2.5
 21
0.0
 31
0.0
  0
LINE
  5
1A6
330
19F
100
AcDbEntity
  8
FORMAT
 62
     0
100
AcDbLine
 10
0.0
 20
5.0
 30
0.0
 11
0.0
 21
16.5
 31
0.0
  0
LINE
  5
1A7
330
19F
100
AcDbEntity
  8
FORMAT
 62
     0
100
AcDbLine
 10
-5.0
 20
0.0
 30
0.0
 11
-16.5
 21
0.0
 31
0.0
  0
LINE
  5
1A8
330
19F
100
AcDbEntity
  8
FORMAT
 62
     0
100
AcDbLine
 10
0.0
 20
-5.0
 30
0.0
 11
0.0
 21
-16.5
 31
0.0
  0
LINE
  5
1A9
330
19F
100
AcDbEntity
  8
FORMAT
 62
     0
100
AcDbLine
 10
5.0
 20
0.0
 30
0.0
 11
16.5
 21
0.0
 31
0.0
  0
ENDBLK
  5
1A1
330
19F
100
AcDbEntity
  8
0
100
AcDbBlockEnd
  0
ENDSEC
  0
SECTION
  2
ENTITIES
  0
CIRCLE
  5
83
330
1F
100
AcDbEntity
  8
0
  6
Continuous
 62
     7
370
    25
100
AcDbCircle
 10
-47.1028343903
 20
361.1173212322
 30
0.0
 40
14.00000000000001
  0
CIRCLE
  5
84
330
1F
100
AcDbEntity
  8
0
  6
Continuous
 62
     7
370
    25
100
AcDbCircle
 10
-159.7169262312
 20
206.1173212322
 30
0.0
 40
14.0
  0
CIRCLE
  5
85
330
1F
100
AcDbEntity
  8
0
  6
Continuous
 62
     7
370
    25
100
AcDbCircle
 10
-159.7169262312
 20
14.5267847197
 30
0.0
 40
14.0
  0
CIRCLE
  5
86
330
1F
100
AcDbEntity
  8
0
  6
Continuous
 62
     7
370
    25
100
AcDbCircle
 10
-47.1028343903
 20
-140.4732152804
 30
0.0
 40
14.00000000000001
  0
CIRCLE
  5
87
330
1F
100
AcDbEntity
  8
0
  6
Continuous
 62
     7
370
    25
100
AcDbCircle
 10
135.1105938204
 20
-199.6779470241
 30
0.0
 40
14.0
  0
CIRCLE
  5
88
330
1F
100
AcDbEntity
  8
0
  6
Continuous
 62
     7
370
    25
100
AcDbCircle
 10
317.3240220311
 20
-140.4732152804
 30
0.0
 40
14.0
  0
CIRCLE
  5
89
330
1F
100
AcDbEntity
  8
0
  6
Continuous
 62
     7
370
    25
100
AcDbCircle
 10
429.9381138719
 20
14.5267847196
 30
0.0
 40
14.0
  0
CIRCLE
  5
8A
330
1F
100
AcDbEntity
  8
0
  6
Continuous
 62
     7
370
    25
100
AcDbCircle
 10
385.9058620767
 20
292.5354811866
 30
0.0
 40
14.00000000000006
  0
CIRCLE
  5
8B
330
1F
100
AcDbEntity
  8
0
  6
Continuous
 62
     7
370
    25
100
AcDbCircle
 10
230.9058620767
 20
405.1495730274
 30
0.0
 40
14.0
  0
CIRCLE
  5
8C
330
1F
100
AcDbEntity
  8
0
  6
Continuous
 62
     7
370
    25
100
AcDbCircle
 10
135.1105938204
 20
420.322052976
 30
0.0
 40
14.0
  0
CIRCLE
  5
8D
330
1F
100
AcDbEntity
  8
0
  6
Continuous
 62
     7
370
    25
100
AcDbCircle
 10
135.1105938204
 20
110.322052976
 30
0.0
 40
338.0000000000001
  0
CIRCLE
  5
8E
330
1F
100
AcDbEntity
  8
0
  6
Continuous
 62
     7
370
    25
100
AcDbCircle
 10
135.1105938204
 20
110.322052976
 30
0.0
 40
259.5
  0
CIRCLE
  5
8F
330
1F
100
AcDbEntity
  8
0
  6
Continuous
 62
     7
370
    25
100
AcDbCircle
 10
429.9381138719
 20
206.1173212321
 30
0.0
 40
14.0
  0
CIRCLE
  5
90
330
1F
100
AcDbEntity
  8
0
  6
Continuous
 62
     7
370
    25
100
AcDbCircle
 10
317.3240220311
 20
361.1173212322
 30
0.0
 40
14.0
  0
CIRCLE
  5
91
330
1F
100
AcDbEntity
  8
0
  6
Continuous
 62
     7
370
    25
100
AcDbCircle
 10
445.1105938204
 20
110.3220529759
 30
0.0
 40
14.0
  0
CIRCLE
  5
92
330
1F
100
AcDbEntity
  8
0
  6
Continuous
 62
     7
370
    25
100
AcDbCircle
 10
385.9058620766
 20
-71.8913752348
 30
0.0
 40
14.0
  0
CIRCLE
  5
93
330
1F
100
AcDbEntity
  8
0
  6
Continuous
 62
     7
370
    25
100
AcDbCircle
 10
230.9058620766
 20
-184.5054670756
 30
0.0
 40
14.0
  0
CIRCLE
  5
94
330
1F
100
AcDbEntity
  8
0
  6
Continuous
 62
     7
370
    25
100
AcDbCircle
 10
39.3153255641
 20
-184.5054670756
 30
0.0
 40
14.00000000000001
  0
CIRCLE
  5
95
330
1F
100
AcDbEntity
  8
0
  6
Continuous
 62
     7
370
    25
100
AcDbCircle
 10
-115.6846744359
 20
-71.8913752348
 30
0.0
 40
14.00000000000001
  0
CIRCLE
  5
96
330
1F
100
AcDbEntity
  8
0
  6
Continuous
 62
     7
370
    25
100
AcDbCircle
 10
-174.8894061797
 20
110.3220529759
 30
0.0
 40
14.0
  0
CIRCLE
  5
97
330
1F
100
AcDbEntity
  8
0
  6
Continuous
 62
     7
370
    25
100
AcDbCircle
 10
-115.6846744359
 20
292.5354811866
 30
0.0
 40
14.00000000000001
  0
CIRCLE
  5
98
330
1F
100
AcDbEntity
  8
0
  6
Continuous
 62
     7
370
    25
100
AcDbCircle
 10
39.3153255642
 20
405.1495730275
 30
0.0
 40
14.00000000000001
  0
CIRCLE
  5
99
330
1F
100
AcDbEntity
  8
0
  6
Continuous
 62
     7
370
    25
100
AcDbCircle
 10
385.9058620766
 20
-71.8913752348
 30
0.0
 40
13.0
  0
CIRCLE
  5
9A
330
1F
100
AcDbEntity
  8
0
  6
Continuous
 62
     7
370
    25
100
AcDbCircle
 10
445.1105938204
 20
110.3220529759
 30
0.0
 40
13.0
  0
CIRCLE
  5
9B
330
1F
100
AcDbEntity
  8
0
  6
Continuous
 62
     7
370
    25
100
AcDbCircle
 10
317.3240220311
 20
361.1173212322
 30
0.0
 40
13.0
  0
CIRCLE
  5
9C
330
1F
100
AcDbEntity
  8
0
  6
Continuous
 62
     7
370
    25
100
AcDbCircle
 10
429.9381138719
 20
206.1173212321
 30
0.0
 40
13.0
  0
CIRCLE
  5
9D
330
1F
100
AcDbEntity
  8
0
  6
Continuous
 62
     7
370
    25
100
AcDbCircle
 10
135.1105938204
 20
110.322052976
 30
0.0
 40
258.5
  0
CIRCLE
  5
9E
330
1F
100
AcDbEntity
  8
0
  6
Continuous
 62
     7
370
    25
100
AcDbCircle
 10
135.1105938204
 20
110.322052976
 30
0.0
 40
339.0000000000001
  0
CIRCLE
  5
9F
330
1F
100
AcDbEntity
  8
0
  6
Continuous
 62
     7
370
    25
100
AcDbCircle
 10
135.1105938204
 20
420.322052976
 30
0.0
 40
13.0
  0
CIRCLE
  5
A0
330
1F
100
AcDbEntity
  8
0
  6
Continuous
 62
     7
370
    25
100
AcDbCircle
 10
230.9058620767
 20
405.1495730274
 30
0.0
 40
13.0
  0
CIRCLE
  5
A1
330
1F
100
AcDbEntity
  8
0
  6
Continuous
 62
     7
370
    25
100
AcDbCircle
 10
385.9058620767
 20
292.5354811866
 30
0.0
 40
13.00000000000006
  0
CIRCLE
  5
A2
330
1F
100
AcDbEntity
  8
0
  6
Continuous
 62
     7
370
    25
100
AcDbCircle
 10
429.9381138719
 20
14.5267847196
 30
0.0
 40
13.0
  0
CIRCLE
  5
A3
330
1F
100
AcDbEntity
  8
0
  6
Continuous
 62
     7
370
    25
100
AcDbCircle
 10
317.3240220311
 20
-140.4732152804
 30
0.0
 40
13.0
  0
CIRCLE
  5
A4
330
1F
100
AcDbEntity
  8
0
  6
Continuous
 62
     7
370
    25
100
AcDbCircle
 10
39.3153255642
 20
405.1495730275
 30
0.0
 40
13.00000000000001
  0
CIRCLE
  5
A5
330
1F
100
AcDbEntity
  8
0
  6
Continuous
 62
     7
370
    25
100
AcDbCircle
 10
-115.6846744359
 20
292.5354811866
 30
0.0
 40
13.00000000000001
  0
CIRCLE
  5
A6
330
1F
100
AcDbEntity
  8
0
  6
Continuous
 62
     7
370
    25
100
AcDbCircle
 10
-174.8894061797
 20
110.3220529759
 30
0.0
 40
13.0
  0
CIRCLE
  5
A7
330
1F
100
AcDbEntity
  8
0
  6
Continuous
 62
     7
370
    25
100
AcDbCircle
 10
-115.6846744359
 20
-71.8913752348
 30
0.0
 40
13.00000000000001
  0
CIRCLE
  5
A8
330
1F
100
AcDbEntity
  8
0
  6
Continuous
 62
     7
370
    25
100
AcDbCircle
 10
39.3153255641
 20
-184.5054670756
 30
0.0
 40
13.00000000000001
  0
CIRCLE
  5
A9
330
1F
100
AcDbEntity
  8
0
  6
Continuous
 62
     7
370
    25
100
AcDbCircle
 10
230.9058620766
 20
-184.5054670756
 30
0.0
 40
13.0
  0
CIRCLE
  5
AA
330
1F
100
AcDbEntity
  8
0
  6
Continuous
 62
     7
370
    25
100
AcDbCircle
 10
-47.1028343903
 20
-140.4732152804
 30
0.0
 40
13.00000000000001
  0
CIRCLE
  5
AB
330
1F
100
AcDbEntity
  8
0
  6
Continuous
 62
     7
370
    25
100
AcDbCircle
 10
-159.7169262312
 20
14.5267847197
 30
0.0
 40
13.0
  0
CIRCLE
  5
AC
330
1F
100
AcDbEntity
  8
0
  6
Continuous
 62
     7
370
    25
100
AcDbCircle
 10
-159.7169262312
 20
206.1173212322
 30
0.0
 40
13.0
  0
CIRCLE
  5
AD
330
1F
100
AcDbEntity
  8
0
  6
Continuous
 62
     7
370
    25
100
AcDbCircle
 10
135.1105938204
 20
-199.6779470241
 30
0.0
 40
13.0
  0
CIRCLE
  5
AE
330
1F
100
AcDbEntity
  8
0
  6
Continuous
 62
     7
370
    25
100
AcDbCircle
 10
-47.1028343903
 20
361.1173212322
 30
0.0
 40
13.00000000000001
  0
INSERT
  5
BA
330
1F
100
AcDbEntity
  8
FORMAT
 62
     7
100
AcDbBlockReference
  2
SW_CENTERMARKSYMBOL_0
 10
135.1105938204
 20
110.322052976
 30
0.0
  0
INSERT
  5
C6
330
1F
100
AcDbEntity
  8
FORMAT
 62
     7
100
AcDbBlockReference
  2
SW_CENTERMARKSYMBOL_1
 10
135.1105938204
 20
420.322052976
 30
0.0
  0
INSERT
  5
D2
330
1F
100
AcDbEntity
  8
FORMAT
 62
     7
100
AcDbBlockReference
  2
SW_CENTERMARKSYMBOL_2
 10
230.9058620767
 20
405.1495730274
 30
0.0
  0
INSERT
  5
DE
330
1F
100
AcDbEntity
  8
FORMAT
 62
     7
100
AcDbBlockReference
  2
SW_CENTERMARKSYMBOL_3
 10
317.3240220311
 20
361.1173212322
 30
0.0
  0
INSERT
  5
EA
330
1F
100
AcDbEntity
  8
FORMAT
 62
     7
100
AcDbBlockReference
  2
SW_CENTERMARKSYMBOL_4
 10
385.9058620767
 20
292.5354811866
 30
0.0
  0
INSERT
  5
F6
330
1F
100
AcDbEntity
  8
FORMAT
 62
     7
100
AcDbBlockReference
  2
SW_CENTERMARKSYMBOL_5
 10
-115.6846744359
 20
-71.8913752348
 30
0.0
  0
INSERT
  5
102
330
1F
100
AcDbEntity
  8
FORMAT
 62
     7
100
AcDbBlockReference
  2
SW_CENTERMARKSYMBOL_6
 10
-174.8894061797
 20
110.3220529759
 30
0.0
  0
INSERT
  5
10E
330
1F
100
AcDbEntity
  8
FORMAT
 62
     7
100
AcDbBlockReference
  2
SW_CENTERMARKSYMBOL_7
 10
-115.6846744359
 20
292.5354811866
 30
0.0
  0
INSERT
  5
11A
330
1F
100
AcDbEntity
  8
FORMAT
 62
     7
100
AcDbBlockReference
  2
SW_CENTERMARKSYMBOL_8
 10
39.3153255642
 20
405.1495730275
 30
0.0
  0
INSERT
  5
126
330
1F
100
AcDbEntity
  8
FORMAT
 62
     7
100
AcDbBlockReference
  2
SW_CENTERMARKSYMBOL_9
 10
385.9058620766
 20
-71.8913752348
 30
0.0
  0
INSERT
  5
132
330
1F
100
AcDbEntity
  8
FORMAT
 62
     7
100
AcDbBlockReference
  2
SW_CENTERMARKSYMBOL_10
 10
429.9381138719
 20
14.5267847196
 30
0.0
  0
INSERT
  5
13E
330
1F
100
AcDbEntity
  8
FORMAT
 62
     7
100
AcDbBlockReference
  2
SW_CENTERMARKSYMBOL_11
 10
445.1105938204
 20
110.3220529759
 30
0.0
  0
INSERT
  5
14A
330
1F
100
AcDbEntity
  8
FORMAT
 62
     7
100
AcDbBlockReference
  2
SW_CENTERMARKSYMBOL_12
 10
429.9381138719
 20
206.1173212321
 30
0.0
  0
INSERT
  5
156
330
1F
100
AcDbEntity
  8
FORMAT
 62
     7
100
AcDbBlockReference
  2
SW_CENTERMARKSYMBOL_13
 10
-47.1028343903
 20
361.1173212322
 30
0.0
  0
INSERT
  5
162
330
1F
100
AcDbEntity
  8
FORMAT
 62
     7
100
AcDbBlockReference
  2
SW_CENTERMARKSYMBOL_14
 10
-159.7169262312
 20
206.1173212322
 30
0.0
  0
INSERT
  5
16E
330
1F
100
AcDbEntity
  8
FORMAT
 62
     7
100
AcDbBlockReference
  2
SW_CENTERMARKSYMBOL_15
 10
-159.7169262312
 20
14.5267847197
 30
0.0
  0
INSERT
  5
17A
330
1F
100
AcDbEntity
  8
FORMAT
 62
     7
100
AcDbBlockReference
  2
SW_CENTERMARKSYMBOL_16
 10
-47.1028343903
 20
-140.4732152804
 30
0.0
  0
INSERT
  5
186
330
1F
100
AcDbEntity
  8
FORMAT
 62
     7
100
AcDbBlockReference
  2
SW_CENTERMARKSYMBOL_17
 10
39.3153255641
 20
-184.5054670756
 30
0.0
  0
INSERT
  5
192
330
1F
100
AcDbEntity
  8
FORMAT
 62
     7
100
AcDbBlockReference
  2
SW_CENTERMARKSYMBOL_18
 10
135.1105938204
 20
-199.6779470241
 30
0.0
  0
INSERT
  5
19E
330
1F
100
AcDbEntity
  8
FORMAT
 62
     7
100
AcDbBlockReference
  2
SW_CENTERMARKSYMBOL_19
 10
230.9058620766
 20
-184.5054670756
 30
0.0
  0
INSERT
  5
1AA
330
1F
100
AcDbEntity
  8
FORMAT
 62
     7
100
AcDbBlockReference
  2
SW_CENTERMARKSYMBOL_20
 10
317.3240220311
 20
-140.4732152804
 30
0.0
  0
LINE
  5
1AB
330
1F
100
AcDbEntity
  8
0
  6
Continuous
 62
     7
370
    25
100
AcDbLine
 10
-633.3607974296
 20
449.322052976
 30
0.0
 11
-676.3607974296
 21
449.322052976
 31
0.0
  0
LINE
  5
1AC
330
1F
100
AcDbEntity
  8
0
  6
Continuous
 62
     7
370
    25
100
AcDbLine
 10
-676.3607974296
 20
-228.677947024
 30
0.0
 11
-633.3607974296
 21
-228.677947024
 31
0.0
  0
ARC
  5
1AD
330
1F
100
AcDbEntity
  8
0
  6
Continuous
 62
     7
370
    25
100
AcDbCircle
 10
-633.3607974296
 20
-227.677947024
 30
0.0
 40
1.0
100
AcDbArc
 50
270.0
 51
0.0
  0
ARC
  5
1AE
330
1F
100
AcDbEntity
  8
0
  6
Continuous
 62
     7
370
    25
100
AcDbCircle
 10
-633.3607974296
 20
448.322052976
 30
0.0
 40
1.0
100
AcDbArc
 50
0.0
 51
90.0
  0
ARC
  5
1AF
330
1F
100
AcDbEntity
  8
0
  6
Continuous
 62
     7
370
    25
100
AcDbCircle
 10
-676.3607974296
 20
-227.677947024
 30
0.0
 40
1.0
100
AcDbArc
 50
180.0
 51
270.0
  0
ARC
  5
1B0
330
1F
100
AcDbEntity
  8
0
  6
Continuous
 62
     7
370
    25
100
AcDbCircle
 10
-676.3607974296
 20
448.322052976
 30
0.0
 40
1.0
100
AcDbArc
 50
90.0
 51
180.0
  0
LINE
  5
1B1
330
1F
100
AcDbEntity
  8
0
  6
Continuous
 62
     7
370
    25
100
AcDbLine
 10
-632.3607974296
 20
110.322052976
 30
0.0
 11
-632.3607974296
 21
-227.677947024
 31
0.0
  0
LINE
  5
1B2
330
1F
100
AcDbEntity
  8
0
  6
Continuous
 62
     7
370
    25
100
AcDbLine
 10
-632.3607974296
 20
448.322052976
 30
0.0
 11
-632.3607974296
 21
110.322052976
 31
0.0
  0
LINE
  5
1B3
330
1F
100
AcDbEntity
  8
0
  6
Continuous
 62
     7
370
    25
100
AcDbLine
 10
-677.3607974296
 20
110.322052976
 30
0.0
 11
-677.3607974296
 21
448.322052976
 31
0.0
  0
LINE
  5
1B4
330
1F
100
AcDbEntity
  8
0
  6
Continuous
 62
     7
370
    25
100
AcDbLine
 10
-677.3607974296
 20
-227.677947024
 30
0.0
 11
-677.3607974296
 21
110.322052976
 31
0.0
  0
LINE
  5
1B5
330
1F
100
AcDbEntity
  8
0
  6
Continuous
 62
     1
370
    25
100
AcDbLine
 10
-676.3607974296
 20
110.322052976
 30
0.0
 11
-676.3607974296
 21
-228.677947024
 31
0.0
  0
LINE
  5
1B6
330
1F
100
AcDbEntity
  8
0
  6
Continuous
 62
     1
370
    25
100
AcDbLine
 10
-676.3607974296
 20
449.322052976
 30
0.0
 11
-676.3607974296
 21
110.322052976
 31
0.0
  0
LINE
  5
1B7
330
1F
100
AcDbEntity
  8
0
  6
Continuous
 62
     1
370
    25
100
AcDbLine
 10
-633.3607974296
 20
110.322052976
 30
0.0
 11
-633.3607974296
 21
449.322052976
 31
0.0
  0
LINE
  5
1B8
330
1F
100
AcDbEntity
  8
0
  6
Continuous
 62
     1
370
    25
100
AcDbLine
 10
-633.3607974296
 20
-228.677947024
 30
0.0
 11
-633.3607974296
 21
110.322052976
 31
0.0
  0
LINE
  5
1B9
330
1F
100
AcDbEntity
  8
0
  6
Continuous
 62
     7
370
    25
100
AcDbLine
 10
847.9663325679
 20
-228.677947024
 30
0.0
 11
890.9663325679
 21
-228.677947024
 31
0.0
  0
LINE
  5
1BA
330
1F
100
AcDbEntity
  8
0
  6
Continuous
 62
     7
370
    25
100
AcDbLine
 10
890.9663325679
 20
449.322052976
 30
0.0
 11
847.9663325679
 21
449.322052976
 31
0.0
  0
ARC
  5
1BB
330
1F
100
AcDbEntity
  8
0
  6
Continuous
 62
     7
370
    25
100
AcDbCircle
 10
847.9663325679
 20
448.322052976
 30
0.0
 40
1.0
100
AcDbArc
 50
90.0
 51
180.0
  0
ARC
  5
1BC
330
1F
100
AcDbEntity
  8
0
  6
Continuous
 62
     7
370
    25
100
AcDbCircle
 10
847.9663325679
 20
-227.677947024
 30
0.0
 40
1.0
100
AcDbArc
 50
180.0
 51
270.0
  0
ARC
  5
1BD
330
1F
100
AcDbEntity
  8
0
  6
Continuous
 62
     7
370
    25
100
AcDbCircle
 10
890.9663325679
 20
448.322052976
 30
0.0
 40
1.0
100
AcDbArc
 50
0.0
 51
90.0
  0
ARC
  5
1BE
330
1F
100
AcDbEntity
  8
0
  6
Continuous
 62
     7
370
    25
100
AcDbCircle
 10
890.9663325679
 20
-227.677947024
 30
0.0
 40
1.0
100
AcDbArc
 50
270.0
 51
0.0
  0
LINE
  5
1BF
330
1F
100
AcDbEntity
  8
0
  6
Continuous
 62
     7
370
    25
100
AcDbLine
 10
846.9663325679
 20
-227.677947024
 30
0.0
 11
846.9663325679
 21
448.322052976
 31
0.0
  0
LINE
  5
1C0
330
1F
100
AcDbEntity
  8
0
  6
Continuous
 62
     7
370
    25
100
AcDbLine
 10
891.9663325679
 20
448.322052976
 30
0.0
 11
891.9663325679
 21
-227.677947024
 31
0.0
  0
LINE
  5
1C1
330
1F
100
AcDbEntity
  8
0
  6
Continuous
 62
     1
370
    25
100
AcDbLine
 10
890.9663325679
 20
-228.677947024
 30
0.0
 11
890.9663325679
 21
449.322052976
 31
0.0
  0
LINE
  5
1C2
330
1F
100
AcDbEntity
  8
0
  6
Continuous
 62
     1
370
    25
100
AcDbLine
 10
847.9663325679
 20
449.322052976
 30
0.0
 11
847.9663325679
 21
-228.677947024
 31
0.0
  0
LINE
  5
1C3
330
1F
100
AcDbEntity
  8
0
  6
Continuous
 62
     7
370
    25
100
AcDbLine
 10
474.1105938204
 20
748.416728797
 30
0.0
 11
474.1105938204
 21
791.416728797
 31
0.0
  0
LINE
  5
1C4
330
1F
100
AcDbEntity
  8
0
  6
Continuous
 62
     7
370
    25
100
AcDbLine
 10
-203.8894061796
 20
791.416728797
 30
0.0
 11
-203.8894061796
 21
748.416728797
 31
0.0
  0
ARC
  5
1C5
330
1F
100
AcDbEntity
  8
0
  6
Continuous
 62
     7
370
    25
100
AcDbCircle
 10
-202.8894061796
 20
748.416728797
 30
0.0
 40
1.0
100
AcDbArc
 50
180.0
 51
270.0
  0
ARC
  5
1C6
330
1F
100
AcDbEntity
  8
0
  6
Continuous
 62
     7
370
    25
100
AcDbCircle
 10
473.1105938204
 20
748.416728797
 30
0.0
 40
1.0
100
AcDbArc
 50
270.0
 51
0.0
  0
ARC
  5
1C7
330
1F
100
AcDbEntity
  8
0
  6
Continuous
 62
     7
370
    25
100
AcDbCircle
 10
-202.8894061796
 20
791.416728797
 30
0.0
 40
1.000000000000114
100
AcDbArc
 50
90.0
 51
180.0
  0
ARC
  5
1C8
330
1F
100
AcDbEntity
  8
0
  6
Continuous
 62
     7
370
    25
100
AcDbCircle
 10
473.1105938204
 20
791.416728797
 30
0.0
 40
1.000000000000114
100
AcDbArc
 50
0.0
 51
90.0
  0
LINE
  5
1C9
330
1F
100
AcDbEntity
  8
0
  6
Continuous
 62
     7
370
    25
100
AcDbLine
 10
473.1105938204
 20
747.416728797
 30
0.0
 11
-202.8894061788
 21
747.416728797
 31
0.0
  0
LINE
  5
1CA
330
1F
100
AcDbEntity
  8
0
  6
Continuous
 62
     7
370
    25
100
AcDbLine
 10
-202.8894061788
 20
792.416728797
 30
0.0
 11
473.1105938204
 21
792.416728797
 31
0.0
  0
LINE
  5
1CB
330
1F
100
AcDbEntity
  8
0
  6
Continuous
 62
     1
370
    25
100
AcDbLine
 10
474.1105938204
 20
791.416728797
 30
0.0
 11
-203.8894061796
 21
791.416728797
 31
0.0
  0
LINE
  5
1CC
330
1F
100
AcDbEntity
  8
0
  6
Continuous
 62
     1
370
    25
100
AcDbLine
 10
-203.8894061796
 20
748.416728797
 30
0.0
 11
474.1105938204
 21
748.416728797
 31
0.0
  0
LINE
  5
1CD
330
1F
100
AcDbEntity
  8
0
  6
Continuous
 62
     7
370
    25
100
AcDbLine
 10
-203.8894061796
 20
-646.4597897966
 30
0.0
 11
-203.8894061796
 21
-689.4597897966
 31
0.0
  0
LINE
  5
1CE
330
1F
100
AcDbEntity
  8
0
  6
Continuous
 62
     7
370
    25
100
AcDbLine
 10
474.1105938204
 20
-689.4597897966
 30
0.0
 11
474.1105938204
 21
-646.4597897966
 31
0.0
  0
ARC
  5
1CF
330
1F
100
AcDbEntity
  8
0
  6
Continuous
 62
     7
370
    25
100
AcDbCircle
 10
473.1105938204
 20
-646.4597897966
 30
0.0
 40
1.0
100
AcDbArc
 50
0.0
 51
90.0
  0
ARC
  5
1D0
330
1F
100
AcDbEntity
  8
0
  6
Continuous
 62
     7
370
    25
100
AcDbCircle
 10
-202.8894061796
 20
-646.4597897966
 30
0.0
 40
1.0
100
AcDbArc
 50
90.0
 51
180.0
  0
ARC
  5
1D1
330
1F
100
AcDbEntity
  8
0
  6
Continuous
 62
     7
370
    25
100
AcDbCircle
 10
473.1105938204
 20
-689.4597897966
 30
0.0
 40
1.0
100
AcDbArc
 50
270.0
 51
0.0
  0
ARC
  5
1D2
330
1F
100
AcDbEntity
  8
0
  6
Continuous
 62
     7
370
    25
100
AcDbCircle
 10
-202.8894061796
 20
-689.4597897966
 30
0.0
 40
1.0
100
AcDbArc
 50
180.0
 51
270.0
  0
LINE
  5
1D3
330
1F
100
AcDbEntity
  8
0
  6
Continuous
 62
     7
370
    25
100
AcDbLine
 10
-202.8894061788
 20
-645.4597897966
 30
0.0
 11
473.1105938204
 21
-645.4597897966
 31
0.0
  0
LINE
  5
1D4
330
1F
100
AcDbEntity
  8
0
  6
Continuous
 62
     7
370
    25
100
AcDbLine
 10
473.1105938204
 20
-690.4597897966
 30
0.0
 11
-202.8894061788
 21
-690.4597897966
 31
0.0
  0
LINE
  5
1D5
330
1F
100
AcDbEntity
  8
0
  6
Continuous
 62
     1
370
    25
100
AcDbLine
 10
-203.8894061796
 20
-689.4597897966
 30
0.0
 11
474.1105938204
 21
-689.4597897966
 31
0.0
  0
LINE
  5
1D6
330
1F
100
AcDbEntity
  8
0
  6
Continuous
 62
     1
370
    25
100
AcDbLine
 10
474.1105938204
 20
-646.4597897966
 30
0.0
 11
-203.8894061796
 21
-646.4597897966
 31
0.0
  0
SPLINE
  5
1D7
330
1F
100
AcDbEntity
  8
0
  6
Continuous
 62
     7
370
    25
100
AcDbSpline
210
0.0
220
0.0
230
1.0
 70
     8
 71
     3
 72
    94
 73
    90
 74
     0
 42
0.00000001
 43
0.00000001
 40
0.0
 40
0.0
 40
0.0
 40
0.0
 40
0.0033585827255976
 40
0.0150230476311835
 40
0.0266904616111538
 40
0.0383607098958485
 40
0.0500336139213004
 40
0.0617089494399565
 40
0.07338646349601
 40
0.0850658893169085
 40
0.096746958609931
 40
0.1084294111161229
 40
0.1201130015411538
 40
0.1317975041532223
 40
0.1434827154258986
 40
0.1551684551278391
 40
0.1668545662425103
 40
0.1785409140568537
 40
0.190227384701982
 40
0.201913868919852
 40
0.2136002810275173
 40
0.2252865631831099
 40
0.2369726701986241
 40
0.2486585678019263
 40
0.260344231053823
 40
0.2720296429302252
 40
0.2837147930698338
 40
0.2953996766807046
 40
0.3070842935950333
 40
0.3187686474590071
 40
0.3304527450438447
 40
0.3421365956640016
 40
0.3538202106892119
 40
0.3655036031379031
 40
0.377186787340702
 40
0.3888697786638438
 40
0.4005525932835844
 40
0.4122352480036449
 40
0.4239177601089281
 40
0.4356001472494755
 40
0.4472824273495574
 40
0.4589646185374248
 40
0.4706467390918522
 40
0.4823288074021074
 40
0.4940108419383535
 40
0.5056928612298673
 40
0.5173748838486175
 40
0.5290569231675516
 40
0.5407389968398478
 40
0.5524211234958615
 40
0.5641033217590863
 40
0.5757856102259713
 40
0.5874680074386384
 40
0.599150531847853
 40
0.6108332017633658
 40
0.6225160352882724
 40
0.6341990502336909
 40
0.6458822640093477
 40
0.6575656934850883
 40
0.669249354817497
 40
0.6809332632349075
 40
0.6926174327730893
 40
0.704301875952772
 40
0.7159866033890452
 40
0.7276716233213514
 40
0.739356941051654
 40
0.7510425582773294
 40
0.762728472304502
 40
0.7744146751272611
 40
0.7861011523587844
 40
0.7977878820020511
 40
0.8094748330513573
 40
0.8211619639218506
 40
0.8328492207134067
 40
0.8445365312950371
 40
0.8562237835926004
 40
0.8679108686709346
 40
0.8795976568034669
 40
0.8912839958038457
 40
0.9029697098251297
 40
0.9146545988922005
 40
0.9263384394938863
 40
0.9380209866124536
 40
0.9497019775987865
 40
0.9613811382950491
 40
0.9730581917427542
 40
0.9847328696717567
 40
0.9964049267281158
 40
0.9999999999999999
 40
0.9999999999999999
 40
0.9999999999999999
 40
0.9999999999999999
 10
983.2116920698661
 20
-306.8037902273439
 30
0.0
 10
982.6060134424281
 20
-306.7379813681944
 30
0.0
 10
979.8967936278192
 20
-306.4436162426841
 30
0.0
 10
974.9723830796371
 20
-306.2110899057246
 30
0.0
 10
968.4427959009869
 20
-306.1138776619332
 30
0.0
 10
961.8062422858984
 20
-306.3273448689634
 30
0.0
 10
955.0796259075925
 20
-306.8237790969956
 30
0.0
 10
948.2664224563232
 20
-307.6101526538774
 30
0.0
 10
941.3738234797662
 20
-308.6837783202615
 30
0.0
 10
934.4081266578706
 20
-310.0441959107309
 30
0.0
 10
927.3759575811628
 20
-311.6899885920798
 30
0.0
 10
920.283929496293
 20
-313.6196399441797
 30
0.0
 10
913.1387228543621
 20
-315.8313089961316
 30
0.0
 10
905.94705348102
 20
-318.3228958786692
 30
0.0
 10
898.7156716289983
 20
-321.0920299099145
 30
0.0
 10
891.4513536273446
 20
-324.1360785757589
 30
0.0
 10
884.1608962061296
 20
-327.4521508809435
 30
0.0
 10
876.8511106162729
 20
-331.0371021057844
 30
0.0
 10
869.5288201719064
 20
-334.8875364721698
 30
0.0
 10
862.2008535470742
 20
-338.9998115755815
 30
0.0
 10
854.8740367933127
 20
-343.3700438427845
 30
0.0
 10
847.5551851219743
 20
-347.9941148928984
 30
0.0
 10
840.2510990622218
 20
-352.8676754040898
 30
0.0
 10
832.9685618566323
 20
-357.9861477122975
 30
0.0
 10
825.714333992468
 20
-363.3447300641196
 30
0.0
 10
818.49514765263
 20
-368.93840098912
 30
0.0
 10
811.3177010927744
 20
-374.7619238134305
 30
0.0
 10
804.1886529546501
 20
-380.8098513318746
 30
0.0
 10
797.1146165282529
 20
-387.0765306512699
 30
0.0
 10
790.1021539766937
 20
-393.5561082136674
 30
0.0
 10
783.1577705382545
 20
-400.2425350048702
 30
0.0
 10
776.2879087200645
 20
-407.1295719507841
 30
0.0
 10
769.4989424974634
 20
-414.2107955017981
 30
0.0
 10
762.7971715324983
 20
-421.4796034035439
 30
0.0
 10
756.1888154242772
 20
-428.9292206508406
 30
0.0
 10
749.6800080031048
 20
-436.5527056204776
 30
0.0
 10
743.2767916795531
 20
-444.342956377505
 30
0.0
 10
736.985111858838
 20
-452.2927171490152
 30
0.0
 10
730.8108114301798
 20
-460.3945849587867
 30
0.0
 10
724.7596253401457
 20
-468.6410164157512
 30
0.0
 10
718.8371752583832
 20
-477.0243346488792
 30
0.0
 10
713.0489643436064
 20
-485.5367363808197
 30
0.0
 10
707.4003721172095
 20
-494.1702991324094
 30
0.0
 10
701.8966494514527
 20
-502.9169885499727
 30
0.0
 10
696.5429136787525
 20
-511.7686658472307
 30
0.0
 10
691.3441438283238
 20
-520.7170953533466
 30
0.0
 10
686.3051767476105
 20
-529.7539508108138
 30
0.0
 10
681.4307018833769
 20
-538.8708241529159
 30
0.0
 10
676.7252567682358
 20
-548.0592335817706
 30
0.0
 10
672.1932221768324
 20
-557.3106328672111
 30
0.0
 10
667.8388187196181
 20
-566.6164182114122
 30
0.0
 10
663.6661030924256
 20
-575.9679360011417
 30
0.0
 10
659.6789643540213
 20
-585.3564908562979
 30
0.0
 10
655.8811203704587
 20
-594.7733537131093
 30
0.0
 10
652.2761144300307
 20
-604.209769932103
 30
0.0
 10
648.867312032284
 20
-613.6569674206814
 30
0.0
 10
645.65789785419
 20
-623.1061647598148
 30
0.0
 10
642.6508728961314
 20
-632.5485793240194
 30
0.0
 10
639.849051809851
 20
-641.9754353833889
 30
0.0
 10
637.2550604098925
 20
-651.3779721760432
 30
0.0
 10
634.8713333693396
 20
-660.7474519388995
 30
0.0
 10
632.7001120997512
 20
-670.0751678842262
 30
0.0
 10
630.7434428141265
 20
-679.352452109003
 30
0.0
 10
629.0031747704256
 20
-688.5706834237033
 30
0.0
 10
627.4809586916189
 20
-697.7212950867976
 30
0.0
 10
626.178245356364
 20
-706.7957824311125
 30
0.0
 10
625.0962843522218
 20
-715.7857103682502
 30
0.0
 10
624.2361229807385
 20
-724.6827207576906
 30
0.0
 10
623.5986053007944
 20
-733.4785396281079
 30
0.0
 10
623.18437129328
 20
-742.1649842400599
 30
0.0
 10
622.9938561266224
 20
-750.7339699816913
 30
0.0
 10
623.0272894987306
 20
-759.1775170930349
 30
0.0
 10
623.2846950278648
 20
-767.4877572190916
 30
0.0
 10
623.7658896040916
 20
-775.6569388616156
 30
0.0
 10
624.470482166334
 20
-783.6774282788194
 30
0.0
 10
625.3978726233253
 20
-791.5417211108744
 30
0.0
 10
626.5472511065283
 20
-799.2424493487595
 30
0.0
 10
627.9175979616409
 20
-806.7723926096278
 30
0.0
 10
629.5076830875886
 20
-814.1244784148184
 30
0.0
 10
631.3160619826116
 20
-821.2917921884509
 30
0.0
 10
633.3410853882084
 20
-828.2675708427953
 30
0.0
 10
635.5808581288957
 20
-835.0452592465545
 30
0.0
 10
638.0333879517193
 20
-841.6183342507923
 30
0.0
 10
640.6960265491617
 20
-847.9809987977136
 30
0.0
 10
643.5675538098488
 20
-854.1256326354821
 30
0.0
 10
646.6404031628261
 20
-860.0523479710247
 30
0.0
 10
649.9296757679482
 20
-865.7333841895074
 30
0.0
 10
652.572792727309
 20
-869.9748705825316
 30
0.0
 10
654.1831218013599
 20
-872.2413170913395
 30
0.0
 10
654.5623188664657
 20
-872.7750153758756
 30
0.0
  0
LINE
  5
1D8
330
1F
100
AcDbEntity
  8
0
  6
Continuous
 62
     7
370
    25
100
AcDbLine
 10
1062.911316941
 20
-339.6777499681
 30
0.0
 11
1032.50572535
 21
-322.1249755639
 31
0.0
  0
LINE
  5
1D9
330
1F
100
AcDbEntity
  8
0
  6
Continuous
 62
     7
370
    25
100
AcDbLine
 10
693.5332749863
 20
-909.306104258
 30
0.0
 11
723.9388665774
 21
-926.8588786622
 31
0.0
  0
SPLINE
  5
1DA
330
1F
100
AcDbEntity
  8
0
  6
Continuous
 62
     7
370
    25
100
AcDbSpline
210
0.0
220
0.0
230
1.0
 70
     8
 71
     3
 72
    77
 73
    73
 74
     0
 42
0.00000001
 43
0.00000001
 40
0.0
 40
0.0
 40
0.0
 40
0.0
 40
0.002782615705142
 40
0.0173760878989999
 40
0.0319732369958089
 40
0.0465739083682823
 40
0.0611778703865364
 40
0.0757848369847355
 40
0.0903944886301626
 40
0.1050064905785749
 40
0.1196205078381368
 40
0.1342362167051162
 40
0.1488533130532533
 40
0.1634715177585893
 40
0.1780905797398794
 40
0.1927102771169596
 40
0.2073304169609801
 40
0.2219508340523077
 40
0.2365713889914658
 40
0.2511919440604191
 40
0.2658123990861838
 40
0.280432683774419
 40
0.2950527433845777
 40
0.3096725365782581
 40
0.3242920334638351
 40
0.338911213848305
 40
0.3535300656955675
 40
0.3681485837820771
 40
0.3827667685359926
 40
0.3973846250432512
 40
0.4120021622030186
 40
0.4266193920151641
 40
0.4412363289831069
 40
0.4558529896166817
 40
0.4704693920210062
 40
0.485085555558907
 40
0.4997015005757788
 40
0.5143172481772407
 40
0.5289328200511452
 40
0.5435482383266053
 40
0.5581635254637087
 40
0.5727787041684747
 40
0.5873937973282574
 40
0.6020088279634542
 40
0.6166238191918562
 40
0.6312387942023762
 40
0.6458537762351431
 40
0.6604687810710335
 40
0.6750838317507447
 40
0.689698951582211
 40
0.7043141638620011
 40
0.718929491849199
 40
0.7335449587299403
 40
0.7481605875693718
 40
0.7627764012472881
 40
0.7773924223732546
 40
0.7920086731764537
 40
0.8066251753647063
 40
0.8212419499462466
 40
0.8358590170068914
 40
0.8504763954340315
 40
0.865094102577633
 40
0.8797121538370436
 40
0.8943305621608818
 40
0.908949337445762
 40
0.9235684858181739
 40
0.9381880087824485
 40
0.9528079022169442
 40
0.9674281552002222
 40
0.9820487486499085
 40
0.9959002328340189
 40
1.0
 40
1.0
 40
1.0
 40
1.0
 10
774.6298666589253
 20
-942.311648421049
 30
0.0
 10
775.032039958131
 20
-942.352477852303
 30
0.0
 10
777.5434175029045
 20
-942.6074378832636
 30
0.0
 10
782.2712303884856
 20
-942.7957492873771
 30
0.0
 10
788.8121393450533
 20
-942.8605265293269
 30
0.0
 10
795.4606844921997
 20
-942.6107100113426
 30
0.0
 10
802.1981352193636
 20
-942.0790122090388
 30
0.0
 10
809.0214904027981
 20
-941.2571651288122
 30
0.0
 10
815.9234179701091
 20
-940.1482478590079
 30
0.0
 10
822.8976463194208
 20
-938.7526599448213
 30
0.0
 10
829.9375329157232
 20
-937.0718784678229
 30
0.0
 10
837.0364605928563
 20
-935.107447158996
 30
0.0
 10
844.1877428416492
 20
-932.8612424948648
 30
0.0
 10
851.384659569661
 20
-930.3353969679152
 30
0.0
 10
858.6204568788122
 20
-927.5323139464251
 30
0.0
 10
865.8883556346817
 20
-924.4546579024259
 30
0.0
 10
873.1815570108582
 20
-921.1053512825933
 30
0.0
 10
880.4932483528723
 20
-917.4875697072094
 30
0.0
 10
887.816604973005
 20
-913.6047396808815
 30
0.0
 10
895.1447982377919
 20
-909.4605334943542
 30
0.0
 10
902.4710027777752
 20
-905.0588640757574
 30
0.0
 10
909.7884053347142
 20
-900.4038781871479
 30
0.0
 10
917.0902072128102
 20
-895.4999534518203
 30
0.0
 10
924.3696276708112
 20
-890.3516953179633
 30
0.0
 10
931.6199094008239
 20
-884.9639327924373
 30
0.0
 10
938.8343240868605
 20
-879.3417140521835
 30
0.0
 10
946.0061780361738
 20
-873.490301911963
 30
0.0
 10
953.1288178729241
 20
-867.4151691317848
 30
0.0
 10
960.19563628138
 20
-861.1219935518753
 30
0.0
 10
967.2000777846362
 20
-854.6166530468878
 30
0.0
 10
974.1356445443641
 20
-847.9052202943714
 30
0.0
 10
980.9959021671826
 20
-840.9939573552746
 30
0.0
 10
987.7744855036539
 20
-833.8893100665207
 30
0.0
 10
994.4651044265382
 20
-826.5979022475335
 30
0.0
 10
1001.061549575688
 20
-819.1265297240384
 30
0.0
 10
1007.557698057738
 20
-811.4821541736534
 30
0.0
 10
1013.947519089555
 20
-803.6718967986567
 30
0.0
 10
1020.225079575145
 20
-795.7030318320677
 30
0.0
 10
1026.384549606443
 20
-787.5829798836974
 30
0.0
 10
1032.420207879049
 20
-779.3193011332754
 30
0.0
 10
1038.326447014583
 20
-770.9196883780855
 30
0.0
 10
1044.097778781857
 20
-762.3919599428067
 30
0.0
 10
1049.728839209537
 20
-753.7440524594655
 30
0.0
 10
1055.214393583408
 20
-744.9840135256024
 30
0.0
 10
1060.549341321769
 20
-736.1199942488499
 30
0.0
 10
1065.728720722709
 20
-727.1602416864154
 30
0.0
 10
1070.747712719822
 20
-718.1130927339192
 30
0.0
 10
1075.601646312408
 20
-708.9869649482857
 30
0.0
 10
1080.286002939718
 20
-699.790348648662
 30
0.0
 10
1084.796421394562
 20
-690.5317974060843
 30
0.0
 10
1089.128701014199
 20
-681.2199215759113
 30
0.0
 10
1093.278805517035
 20
-671.8633803415293
 30
0.0
 10
1097.242866704805
 20
-662.470873661002
 30
0.0
 10
1101.017187997425
 20
-653.051134180292
 30
0.0
 10
1104.59824779684
 20
-643.6129191229337
 30
0.0
 10
1107.982702676336
 20
-634.1650021664042
 30
0.0
 10
1111.16739039255
 20
-624.716165315577
 30
0.0
 10
1114.149332716655
 20
-615.275190784664
 30
0.0
 10
1116.925738085996
 20
-605.8508528969588
 30
0.0
 10
1119.494004062277
 20
-596.451910021423
 30
0.0
 10
1121.851719642022
 20
-587.0870965308455
 30
0.0
 10
1123.996667246287
 20
-577.7651148964713
 30
0.0
 10
1125.926825037531
 20
-568.4946275503432
 30
0.0
 10
1127.640367153051
 20
-559.284249953668
 30
0.0
 10
1129.13567086594
 20
-550.1425395670359
 30
0.0
 10
1130.41129706491
 20
-541.0780005837421
 30
0.0
 10
1131.466069518318
 20
-532.0990303657811
 30
0.0
 10
1132.298784703836
 20
-523.2140840549805
 30
0.0
 10
1132.909299740177
 20
-514.4310255730447
 30
0.0
 10
1133.287719605692
 20
-505.9116311298775
 30
0.0
 10
1133.4173296629
 20
-499.5547496204036
 30
0.0
 10
1133.42535170034
 20
-496.0872602932516
 30
0.0
 10
1133.427183800234
 20
-495.2953434171183
 30
0.0
  0
SPLINE
  5
1DB
330
1F
100
AcDbEntity
  8
0
  6
Continuous
 62
     7
370
    25
100
AcDbSpline
210
0.0
220
0.0
230
1.0
 70
     8
 71
     3
 72
    25
 73
    21
 74
     0
 42
0.00000001
 43
0.00000001
 40
0.0
 40
0.0
 40
0.0
 40
0.0
 40
0.030918423429754
 40
0.0896556024368984
 40
0.1483953230791753
 40
0.2071353780918324
 40
0.2658752007377879
 40
0.3246142557103147
 40
0.3833519043437176
 40
0.442087396017684
 40
0.500819861767977
 40
0.5595483114004435
 40
0.6182716357143201
 40
0.6769886157053694
 40
0.7356979407898407
 40
0.7943982380866543
 40
0.8530881145143779
 40
0.9117662127985693
 40
0.9704312813521879
 40
1.0
 40
1.0
 40
1.0
 40
1.0
 10
1133.427183800234
 20
-495.2953434171183
 30
0.0
 10
1133.42094106579
 20
-493.8142687529903
 30
0.0
 10
1133.40283871595
 20
-489.519527089719
 30
0.0
 10
1133.201722758609
 20
-482.5113996879857
 30
0.0
 10
1132.750428865922
 20
-474.3232021227209
 30
0.0
 10
1132.072633595144
 20
-466.2843830802918
 30
0.0
 10
1131.172769687543
 20
-458.4003882634625
 30
0.0
 10
1130.050588720069
 20
-450.67918269549
 30
0.0
 10
1128.707361105405
 20
-443.1278494316743
 30
0.0
 10
1127.144216941203
 20
-435.7535209920723
 30
0.0
 10
1125.362593942456
 20
-428.5631208654275
 30
0.0
 10
1123.364111664555
 20
-421.5634330740435
 30
0.0
 10
1121.150633237125
 20
-414.7610418681691
 30
0.0
 10
1118.724150441198
 20
-408.1624602738113
 30
0.0
 10
1116.087186688946
 20
-401.7736299345531
 30
0.0
 10
1113.24130310195
 20
-395.6017426694844
 30
0.0
 10
1110.19266896047
 20
-389.6484016373641
 30
0.0
 10
1106.931272598159
 20
-383.9350902773809
 30
0.0
 10
1104.074073807994
 20
-379.3214118399429
 30
0.0
 10
1102.230275428628
 20
-376.7053972878796
 30
0.0
 10
1101.612385646811
 20
-375.8287240686743
 30
0.0
  0
SPLINE
  5
1DC
330
1F
100
AcDbEntity
  8
0
  6
Continuous
 62
     7
370
    25
100
AcDbSpline
210
0.0
220
0.0
230
1.0
 70
     8
 71
     3
 72
    24
 73
    20
 74
     0
 42
0.00000001
 43
0.00000001
 40
0.0
 40
0.0
 40
0.0
 40
0.0
 40
0.0474512666671664
 40
0.1098187134032733
 40
0.1721619351871973
 40
0.2344820456996482
 40
0.2967808341731815
 40
0.3590605323735722
 40
0.4213236063935875
 40
0.4835725855350717
 40
0.5458099323321156
 40
0.608037951953579
 40
0.6702587357961566
 40
0.7324741325877379
 40
0.7946857401771733
 40
0.8568949118442315
 40
0.9191027720003422
 40
0.9813102284222948
 40
1.0
 40
1.0
 40
1.0
 40
1.0
 10
1017.554532545375
 20
-413.8913116086437
 30
0.0
 10
1018.409920690822
 20
-414.9776686060986
 30
0.0
 10
1020.389585980945
 20
-417.4918760474711
 30
0.0
 10
1023.269548701322
 20
-421.721775041082
 30
0.0
 10
1026.22669651463
 20
-426.5250440085509
 30
0.0
 10
1028.978616780729
 20
-431.5668782619458
 30
0.0
 10
1031.52983302344
 20
-436.8309341159432
 30
0.0
 10
1033.875255714737
 20
-442.3135838062578
 30
0.0
 10
1036.012661673357
 20
-448.0074886610554
 30
0.0
 10
1037.939351062006
 20
-453.9059963397164
 30
0.0
 10
1039.653043406225
 20
-460.0019631027135
 30
0.0
 10
1041.151647704522
 20
-466.2880673747159
 30
0.0
 10
1042.433310313552
 20
-472.7567403587934
 30
0.0
 10
1043.496484283914
 20
-479.4001492739014
 30
0.0
 10
1044.339638497837
 20
-486.2103646573678
 30
0.0
 10
1044.962386128771
 20
-493.1787497507792
 30
0.0
 10
1045.361294125881
 20
-500.2982863603341
 30
0.0
 10
1045.502580190695
 20
-505.8627853475437
 30
0.0
 10
1045.511621144916
 20
-509.0501964631481
 30
0.0
 10
1045.513709886068
 20
-509.7865874019716
 30
0.0
  0
SPLINE
  5
1DD
330
1F
100
AcDbEntity
  8
0
  6
Continuous
 62
     7
370
    25
100
AcDbSpline
210
0.0
220
0.0
230
1.0
 70
     8
 71
     3
 72
    68
 73
    64
 74
     0
 42
0.00000001
 43
0.00000001
 40
0.0
 40
0.0
 40
0.0
 40
0.0
 40
0.0087876347648603
 40
0.0254926300005533
 40
0.0421986401329028
 40
0.0589050571918801
 40
0.0756119532668796
 40
0.0923193767381034
 40
0.1090273563985029
 40
0.1257359050565471
 40
0.1424450225882154
 40
0.1591546984942833
 40
0.175864914022388
 40
0.1925756439124096
 40
0.209286857819784
 40
0.2259985214663996
 40
0.2427105975630682
 40
0.2594230465418538
 40
0.2761358271313559
 40
0.2928488968031073
 40
0.3095622121131084
 40
0.3262757289587895
 40
0.3429894027686381
 40
0.3597031886392332
 40
0.3764170414323031
 40
0.3931309158429196
 40
0.4098447584951558
 40
0.4265585167077009
 40
0.4432721449607526
 40
0.4599855977604667
 40
0.4766988297088073
 40
0.4934117956041595
 40
0.510124450583251
 40
0.5268367503174465
 40
0.5435486512784071
 40
0.560260111090981
 40
0.5769710889941734
 40
0.5936815464349972
 40
0.6103914478242665
 40
0.6271007614884954
 40
0.6438094608574287
 40
0.660517525932665
 40
0.6772249450885509
 40
0.6939317172618591
 40
0.7106378545905545
 40
0.7273433855630507
 40
0.7440483587358584
 40
0.7607528470663846
 40
0.7774569528858125
 40
0.7941608134986085
 40
0.8108645940098557
 40
0.8275684533927807
 40
0.8442726534719719
 40
0.8609775146913471
 40
0.8776834217833706
 40
0.8943908277915552
 40
0.9111002552917006
 40
0.9278122933563511
 40
0.9445275885407796
 40
0.9612468280265988
 40
0.9779707131614515
 40
0.9946999221303638
 40
0.9999999999999999
 40
0.9999999999999999
 40
0.9999999999999999
 40
0.9999999999999999
 10
1045.513709886068
 20
-509.7865874019716
 30
0.0
 10
1045.507512357264
 20
-511.0816563805666
 30
0.0
 10
1045.489533536686
 20
-514.8386075033573
 30
0.0
 10
1045.289709192232
 20
-521.1540107947264
 30
0.0
 10
1044.84122754711
 20
-528.763579431785
 30
0.0
 10
1044.167766153171
 20
-536.4816717896598
 30
0.0
 10
1043.273922152656
 20
-544.2964607236761
 30
0.0
 10
1042.159705434603
 20
-552.1989984407701
 30
0.0
 10
1040.826700189935
 20
-560.1794482940447
 30
0.0
 10
1039.276413972236
 20
-568.228082087099
 30
0.0
 10
1037.510717874696
 20
-576.335029242925
 30
0.0
 10
1035.531725799369
 20
-584.490360397328
 30
0.0
 10
1033.341823505996
 20
-592.68408133452
 30
0.0
 10
1030.943657041448
 20
-600.9061508946294
 30
0.0
 10
1028.340131601583
 20
-609.1464923991599
 30
0.0
 10
1025.534407171907
 20
-617.395006750795
 30
0.0
 10
1022.529894627562
 20
-625.641585018026
 30
0.0
 10
1019.330251324583
 20
-633.8761210869345
 30
0.0
 10
1015.939376457201
 20
-642.0885242188158
 30
0.0
 10
1012.361406120741
 20
-650.2687315505455
 30
0.0
 10
1008.600708107936
 20
-658.4067205203362
 30
0.0
 10
1004.66187644161
 20
-666.4925212149957
 30
0.0
 10
1000.54972565259
 20
-674.516228630184
 30
0.0
 10
996.2692848095331
 20
-682.4680148355717
 30
0.0
 10
991.825791307678
 20
-690.3381410358775
 30
0.0
 10
987.2246851528087
 20
-698.1169682849363
 30
0.0
 10
982.4716023475175
 20
-705.7949695159948
 30
0.0
 10
977.5723673949789
 20
-713.3627424282581
 30
0.0
 10
972.5329853317976
 20
-720.8110222253589
 30
0.0
 10
967.3596343564978
 20
-728.1306928143741
 30
0.0
 10
962.0586589854558
 20
-735.3127969411847
 30
0.0
 10
956.6365623300386
 20
-742.3485472548889
 30
0.0
 10
951.0999981811334
 20
-749.2293371917001
 30
0.0
 10
945.4557629058622
 20
-755.9467516687309
 30
0.0
 10
939.7107871603622
 20
-762.4925775784612
 30
0.0
 10
933.8721274215812
 20
-768.8588140747095
 30
0.0
 10
927.9469573397898
 20
-775.0376826409087
 30
0.0
 10
921.9425589120467
 20
-781.0216369312132
 30
0.0
 10
915.8663134750616
 20
-786.8033723744226
 30
0.0
 10
909.7256925138441
 20
-792.375835529719
 30
0.0
 10
903.5282482801645
 20
-797.7322331816794
 30
0.0
 10
897.2816042122932
 20
-802.8660411596886
 30
0.0
 10
890.9934451447865
 20
-807.771012863597
 30
0.0
 10
884.6715072944648
 20
-812.4411874728924
 30
0.0
 10
878.3235680065143
 20
-816.8708978105093
 30
0.0
 10
871.9574352431393
 20
-821.0547778246411
 30
0.0
 10
865.5809367976434
 20
-824.987769640994
 30
0.0
 10
859.2019092181306
 20
-828.6651301286438
 30
0.0
 10
852.8281864358947
 20
-832.0824368962857
 30
0.0
 10
846.467589779532
 20
-835.2355928241836
 30
0.0
 10
840.1279228399871
 20
-838.1208278666039
 30
0.0
 10
833.8169528402626
 20
-840.7347075942315
 30
0.0
 10
827.5423971261512
 20
-843.074135808785
 30
0.0
 10
821.3119026312949
 20
-845.1363621793208
 30
0.0
 10
815.1330460639367
 20
-846.9189642681733
 30
0.0
 10
809.0132991364651
 20
-848.4199043992282
 30
0.0
 10
802.9601025677957
 20
-849.6373113487064
 30
0.0
 10
796.9805380848941
 20
-850.570282317701
 30
0.0
 10
791.0825073027518
 20
-851.2158697245043
 30
0.0
 10
785.2702939207122
 20
-851.5803052969635
 30
0.0
 10
779.5611064336046
 20
-851.6370676739485
 30
0.0
 10
775.2078383292774
 20
-851.5184244718971
 30
0.0
 10
772.7977862036009
 20
-851.2852370247182
 30
0.0
 10
772.2179461012145
 20
-851.229133909019
 30
0.0
  0
SPLINE
  5
1DE
330
1F
100
AcDbEntity
  8
0
  6
Continuous
 62
     7
370
    25
100
AcDbSpline
210
0.0
220
0.0
230
1.0
 70
     8
 71
     3
 72
    85
 73
    81
 74
     0
 42
0.00000001
 43
0.00000001
 40
0.0
 40
0.0
 40
0.0
 40
0.0
 40
0.0036237256623925
 40
0.016697654989197
 40
0.029766494334676
 40
0.0428304624900856
 40
0.0558899242050351
 40
0.0689453410786634
 40
0.0819972273338244
 40
0.0950461132173322
 40
0.1080925170063537
 40
0.1211369253367421
 40
0.1341797808102059
 40
0.1472214754941318
 40
0.1602623488781232
 40
0.1733026889785037
 40
0.1863427354952371
 40
0.1993826841623842
 40
0.2124226461042897
 40
0.225462752039424
 40
0.2385031047081362
 40
0.2515437806714656
 40
0.2645848345071978
 40
0.2776263025296541
 40
0.290668206025911
 40
0.3037105540291677
 40
0.3167533456657324
 40
0.3297965721198358
 40
0.342840218262781
 40
0.3558842639918742
 40
0.3689286853215054
 40
0.3819734552647441
 40
0.3950185445393748
 40
0.4080639221279472
 40
0.4211095557172665
 40
0.43415541203904
 40
0.4472014571301517
 40
0.4602476565281639
 40
0.4732939754153707
 40
0.4863403787226516
 40
0.4993868312029752
 40
0.5124332974830327
 40
0.5254797348666179
 40
0.5385261032545725
 40
0.5515723671152595
 40
0.5646184909412523
 40
0.5776644393056902
 40
0.5907101769432224
 40
0.6037556688640779
 40
0.6168008805114615
 40
0.6298457779742846
 40
0.6428903282692313
 40
0.6559344997087894
 40
0.6689782623748111
 40
0.6820215887206391
 40
0.6950644543288091
 40
0.7081068388555997
 40
0.7211487271982537
 40
0.7341901109252601
 40
0.7472309900141091
 40
0.7602713749437329
 40
0.773311289189556
 40
0.7863507721658044
 40
0.7993898826505295
 40
0.8124287027107112
 40
0.825467342113734
 40
0.838505927842878
 40
0.8515445911893322
 40
0.8645835403042563
 40
0.8776230295124349
 40
0.8906633636557031
 40
0.9037049010820126
 40
0.9167480543586928
 40
0.9297932875536307
 40
0.942841108725935
 40
0.9558920561689056
 40
0.9689466770500047
 40
0.9820054975131164
 40
0.995068984165766
 40
1.0
 40
1.0
 40
1.0
 40
1.0
 10
737.5625295483088
 20
-833.3785800589794
 30
0.0
 10
737.2509500500735
 20
-832.9827788267999
 30
0.0
 10
735.8152323804845
 20
-831.1589783973625
 30
0.0
 10
733.4457816280511
 20
-827.6617482426032
 30
0.0
 10
730.4649261405011
 20
-822.8873199203343
 30
0.0
 10
727.6973554492545
 20
-817.862964379312
 30
0.0
 10
725.1279805016136
 20
-812.618749518885
 30
0.0
 10
722.764745857548
 20
-807.1546012661878
 30
0.0
 10
720.6091352536583
 20
-801.4788231383126
 30
0.0
 10
718.6640720866767
 20
-795.5977821947977
 30
0.0
 10
716.9318016293055
 20
-789.5186723399469
 30
0.0
 10
715.4144537235502
 20
-783.2487733082721
 30
0.0
 10
714.1138857803504
 20
-776.7956458523349
 30
0.0
 10
713.0317176545014
 20
-770.1670736409313
 30
0.0
 10
712.1693149331214
 20
-763.3710706240186
 30
0.0
 10
711.5277863882401
 20
-756.4158687720659
 30
0.0
 10
711.1079783413171
 20
-749.3099093466235
 30
0.0
 10
710.9104710073348
 20
-742.061840300515
 30
0.0
 10
710.935573773827
 20
-734.6804955720967
 30
0.0
 10
711.1833230302332
 20
-727.1748824730864
 30
0.0
 10
711.653481731696
 20
-719.5541602399015
 30
0.0
 10
712.3455387401885
 20
-711.82763761373
 30
0.0
 10
713.258708491194
 20
-704.00476057971
 30
0.0
 10
714.3919312990187
 20
-696.0950994710172
 30
0.0
 10
715.7438742402679
 20
-688.1083360265341
 30
0.0
 10
717.3129325619879
 20
-680.0542504385174
 30
0.0
 10
719.0972315670341
 20
-671.9427084141424
 30
0.0
 10
721.0946289358743
 20
-663.7836482657931
 30
0.0
 10
723.3027174503862
 20
-655.5870680392024
 30
0.0
 10
725.7188280909488
 20
-647.3630126850431
 30
0.0
 10
728.3400334830914
 20
-639.1215612777389
 30
0.0
 10
731.163151674092
 20
-630.8728142845623
 30
0.0
 10
734.1847502232961
 20
-622.6268808881215
 30
0.0
 10
737.4011505925757
 20
-614.3938663658579
 30
0.0
 10
740.8084328254245
 20
-606.1838595309321
 30
0.0
 10
744.4024405047253
 20
-598.0069202397531
 30
0.0
 10
748.1787859803894
 20
-589.8730669723041
 30
0.0
 10
752.1328558588701
 20
-581.7922644922357
 30
0.0
 10
756.259816747117
 20
-573.7744115945013
 30
0.0
 10
760.5546212439335
 20
-565.8293289488687
 30
0.0
 10
765.0120141718357
 20
-557.9667470483671
 30
0.0
 10
769.6265381900971
 20
-550.1962957077582
 30
0.0
 10
774.3925406565251
 20
-542.5274916272446
 30
0.0
 10
779.30418103949
 20
-534.9697257289929
 30
0.0
 10
784.3554390425114
 20
-527.5322502444666
 30
0.0
 10
789.540121729392
 20
-520.2241679221185
 30
0.0
 10
794.8518705086627
 20
-513.0544217042956
 30
0.0
 10
800.2841688733808
 20
-506.0317836780914
 30
0.0
 10
805.8303503330706
 20
-499.1648442075902
 30
0.0
 10
811.4836065331234
 20
-492.4620012570112
 30
0.0
 10
817.2369955578225
 20
-485.9314499139811
 30
0.0
 10
823.0834504141609
 20
-479.5811721220892
 30
0.0
 10
829.0157876948557
 20
-473.4189266319496
 30
0.0
 10
835.0267164204703
 20
-467.4522391802741
 30
0.0
 10
841.1088470623644
 20
-461.6883929070394
 30
0.0
 10
847.2547007502837
 20
-456.1344190218533
 30
0.0
 10
853.4567186707707
 20
-450.7970877322383
 30
0.0
 10
859.7072716651653
 20
-445.6828994489388
 30
0.0
 10
865.9986700386625
 20
-440.798076286758
 30
0.0
 10
872.3231735944868
 20
-436.1485538841255
 30
0.0
 10
878.6730019094434
 20
-431.7399735708327
 30
0.0
 10
885.0403448683893
 20
-427.5776749215782
 30
0.0
 10
891.4173734749666
 20
-423.6666887430457
 30
0.0
 10
897.7962509528163
 20
-420.0117305556013
 30
0.0
 10
904.1691441459323
 20
-416.6171946427864
 30
0.0
 10
910.5282327198805
 20
-413.4871499947728
 30
0.0
 10
916.8657157759833
 20
-410.6253376354347
 30
0.0
 10
923.1738297275717
 20
-408.0351629457838
 30
0.0
 10
929.444863151027
 20
-405.719691525367
 30
0.0
 10
935.6711738601063
 20
-403.6816473855231
 30
0.0
 10
941.8451970146806
 20
-401.9234115052994
 30
0.0
 10
947.959451145356
 20
-400.4470368613859
 30
0.0
 10
954.006571176599
 20
-399.254198966381
 30
0.0
 10
959.9792364733823
 20
-398.346394019179
 30
0.0
 10
965.8704843217525
 20
-397.7242191883068
 30
0.0
 10
971.6725755591408
 20
-397.3900846838584
 30
0.0
 10
977.3812541263144
 20
-397.3381165128451
 30
0.0
 10
982.9798541185279
 20
-397.5918839064054
 30
0.0
 10
987.3527299556265
 20
-397.9656154057598
 30
0.0
 10
989.8151568476022
 20
-398.3542489480241
 30
0.0
 10
990.4899332691136
 20
-398.4607458157212
 30
0.0
  0
SPLINE
  5
1DF
330
1F
100
AcDbEntity
  8
0
  6
Continuous
 62
     7
370
    25
100
AcDbSpline
210
0.0
220
0.0
230
1.0
 70
     8
 71
     3
 72
    13
 73
     9
 74
     0
 42
0.00000001
 43
0.00000001
 40
0.0
 40
0.0
 40
0.0
 40
0.0
 40
0.0884811926553859
 40
0.3131877944238126
 40
0.5300342937929651
 40
0.7392297751213655
 40
0.9449828409042877
 40
1.0
 40
1.0
 40
1.0
 40
1.0
 10
1047.047923051438
 20
-651.0266689868629
 30
0.0
 10
1047.169731891269
 20
-651.0975613696681
 30
0.0
 10
1047.600886137081
 20
-651.3484918594809
 30
0.0
 10
1048.175777759713
 20
-652.0557301441079
 30
0.0
 10
1048.754540700633
 20
-653.1435258997034
 30
0.0
 10
1049.121320926552
 20
-654.463815044295
 30
0.0
 10
1049.248991759529
 20
-655.5940405611241
 30
0.0
 10
1049.256455320294
 20
-656.2676254580418
 30
0.0
 10
1049.258029978253
 20
-656.4097380303473
 30
0.0
  0
SPLINE
  5
1E0
330
1F
100
AcDbEntity
  8
0
  6
Continuous
 62
     7
370
    25
100
AcDbSpline
210
0.0
220
0.0
230
1.0
 70
     8
 71
     3
 72
    23
 73
    19
 74
     0
 42
0.00000001
 43
0.00000001
 40
0.0
 40
0.0
 40
0.0
 40
0.0
 40
0.0335894183173929
 40
0.0980090686472841
 40
0.1626136377275908
 40
0.2273772989805962
 40
0.2922707044179471
 40
0.3572397387519375
 40
0.4222220655242674
 40
0.48713487307876
 40
0.5519085973445761
 40
0.6164811775628607
 40
0.6808078259985174
 40
0.7448964574291806
 40
0.8088825689858254
 40
0.8730223831884597
 40
0.9380494480027965
 40
1.0
 40
1.0
 40
1.0
 40
1.0
 10
1049.258029978253
 20
-656.4097380303473
 30
0.0
 10
1049.252303167459
 20
-656.6914688431278
 30
0.0
 10
1049.235593161142
 20
-657.5135186419346
 30
0.0
 10
1049.046988189173
 20
-658.9746284095166
 30
0.0
 10
1048.622365306335
 20
-660.7847133501118
 30
0.0
 10
1047.99145747323
 20
-662.6325014096184
 30
0.0
 10
1047.171516720304
 20
-664.4685772896835
 30
0.0
 10
1046.180864882804
 20
-666.2473923253874
 30
0.0
 10
1045.044354233932
 20
-667.9237638624853
 30
0.0
 10
1043.791149636683
 20
-669.4555849334644
 30
0.0
 10
1042.454419061357
 20
-670.8048667897755
 30
0.0
 10
1041.070348280781
 20
-671.9391564907221
 30
0.0
 10
1039.677168485968
 20
-672.8329910162829
 30
0.0
 10
1038.314173326544
 20
-673.4686253279083
 30
0.0
 10
1037.018526422532
 20
-673.8399847862806
 30
0.0
 10
1035.826616586287
 20
-673.9430309018554
 30
0.0
 10
1034.771740536709
 20
-673.816332698992
 30
0.0
 10
1034.191401131416
 20
-673.5361700939636
 30
0.0
 10
1033.908261886828
 20
-673.3994827905924
 30
0.0
  0
SPLINE
  5
1E1
330
1F
100
AcDbEntity
  8
0
  6
Continuous
 62
     7
370
    25
100
AcDbSpline
210
0.0
220
0.0
230
1.0
 70
     8
 71
     3
 72
    13
 73
     9
 74
     0
 42
0.00000001
 43
0.00000001
 40
0.0
 40
0.0
 40
0.0
 40
0.0
 40
0.0884811926551865
 40
0.3131877944236407
 40
0.5300342937927995
 40
0.7392297751211636
 40
0.944982840904089
 40
1.0
 40
1.0
 40
1.0
 40
1.0
 10
998.5532388889536
 20
-735.0219256067646
 30
0.0
 10
998.6750477287841
 20
-735.0928179895697
 30
0.0
 10
999.1062019745966
 20
-735.3437484793822
 30
0.0
 10
999.6810935972281
 20
-736.0509867640088
 30
0.0
 10
1000.259856538149
 20
-737.1387825196041
 30
0.0
 10
1000.626636764068
 20
-738.4590716641954
 30
0.0
 10
1000.754307597044
 20
-739.5892971810249
 30
0.0
 10
1000.76177115781
 20
-740.2628820779433
 30
0.0
 10
1000.763345815769
 20
-740.4049946502494
 30
0.0
  0
SPLINE
  5
1E2
330
1F
100
AcDbEntity
  8
0
  6
Continuous
 62
     7
370
    25
100
AcDbSpline
210
0.0
220
0.0
230
1.0
 70
     8
 71
     3
 72
    23
 73
    19
 74
     0
 42
0.00000001
 43
0.00000001
 40
0.0
 40
0.0
 40
0.0
 40
0.0
 40
0.0335894183173939
 40
0.0980090686472637
 40
0.1626136377275703
 40
0.2273772989805811
 40
0.2922707044179143
 40
0.3572397387519015
 40
0.4222220655242458
 40
0.4871348730787423
 40
0.5519085973445624
 40
0.6164811775628445
 40
0.6808078259984928
 40
0.7448964574291514
 40
0.8088825689857806
 40
0.8730223831884212
 40
0.938049448002763
 40
1.0
 40
1.0
 40
1.0
 40
1.0
 10
1000.763345815769
 20
-740.4049946502494
 30
0.0
 10
1000.757619004975
 20
-740.6867254630297
 30
0.0
 10
1000.740908998658
 20
-741.5087752618365
 30
0.0
 10
1000.552304026689
 20
-742.9698850294182
 30
0.0
 10
1000.127681143851
 20
-744.7799699700133
 30
0.0
 10
999.496773310746
 20
-746.6277580295198
 30
0.0
 10
998.6768325578204
 20
-748.4638339095847
 30
0.0
 10
997.6861807203204
 20
-750.2426489452886
 30
0.0
 10
996.5496700714482
 20
-751.9190204823866
 30
0.0
 10
995.2964654741994
 20
-753.4508415533659
 30
0.0
 10
993.9597348988738
 20
-754.8001234096772
 30
0.0
 10
992.5756641182977
 20
-755.9344131106237
 30
0.0
 10
991.1824843234846
 20
-756.8282476361846
 30
0.0
 10
989.8194891640608
 20
-757.4638819478099
 30
0.0
 10
988.5238422600494
 20
-757.8352414061824
 30
0.0
 10
987.3319324238034
 20
-757.9382875217575
 30
0.0
 10
986.277056374226
 20
-757.811589318894
 30
0.0
 10
985.6967169689327
 20
-757.5314267138656
 30
0.0
 10
985.4135777243443
 20
-757.3947394104943
 30
0.0
  0
SPLINE
  5
1E3
330
1F
100
AcDbEntity
  8
0
  6
Continuous
 62
     7
370
    25
100
AcDbSpline
210
0.0
220
0.0
230
1.0
 70
     8
 71
     3
 72
    13
 73
     9
 74
     0
 42
0.00000001
 43
0.00000001
 40
0.0
 40
0.0
 40
0.0
 40
0.0
 40
0.0884811926552993
 40
0.3131877944237826
 40
0.5300342937929449
 40
0.7392297751213212
 40
0.944982840904251
 40
1.0
 40
1.0
 40
1.0
 40
1.0
 10
1078.183426886793
 20
-562.4885707222458
 30
0.0
 10
1078.305235726624
 20
-562.559463105051
 30
0.0
 10
1078.736389972436
 20
-562.8103935948636
 30
0.0
 10
1079.311281595067
 20
-563.5176318794906
 30
0.0
 10
1079.890044535988
 20
-564.6054276350861
 30
0.0
 10
1080.256824761908
 20
-565.9257167796776
 30
0.0
 10
1080.384495594884
 20
-567.0559422965068
 30
0.0
 10
1080.391959155649
 20
-567.7295271934247
 30
0.0
 10
1080.393533813608
 20
-567.8716397657304
 30
0.0
  0
SPLINE
  5
1E4
330
1F
100
AcDbEntity
  8
0
  6
Continuous
 62
     7
370
    25
100
AcDbSpline
210
0.0
220
0.0
230
1.0
 70
     8
 71
     3
 72
    23
 73
    19
 74
     0
 42
0.00000001
 43
0.00000001
 40
0.0
 40
0.0
 40
0.0
 40
0.0
 40
0.0335894183173926
 40
0.0980090686473247
 40
0.1626136377276272
 40
0.2273772989806405
 40
0.2922707044179594
 40
0.3572397387519702
 40
0.4222220655242938
 40
0.487134873078781
 40
0.5519085973446006
 40
0.616481177562882
 40
0.6808078259985346
 40
0.744896457429196
 40
0.8088825689858306
 40
0.873022383188466
 40
0.9380494480028055
 40
1.0
 40
1.0
 40
1.0
 40
1.0
 10
1080.393533813608
 20
-567.8716397657304
 30
0.0
 10
1080.387807002814
 20
-568.1533705785108
 30
0.0
 10
1080.371096996497
 20
-568.9754203773181
 30
0.0
 10
1080.182492024528
 20
-570.4365301449003
 30
0.0
 10
1079.75786914169
 20
-572.246615085496
 30
0.0
 10
1079.126961308584
 20
-574.0944031450024
 30
0.0
 10
1078.307020555659
 20
-575.9304790250674
 30
0.0
 10
1077.316368718158
 20
-577.7092940607712
 30
0.0
 10
1076.179858069286
 20
-579.3856655978691
 30
0.0
 10
1074.926653472038
 20
-580.917486668848
 30
0.0
 10
1073.589922896712
 20
-582.266768525159
 30
0.0
 10
1072.205852116136
 20
-583.4010582261055
 30
0.0
 10
1070.812672321322
 20
-584.2948927516662
 30
0.0
 10
1069.449677161899
 20
-584.9305270632914
 30
0.0
 10
1068.154030257887
 20
-585.3018865216637
 30
0.0
 10
1066.962120421641
 20
-585.4049326372386
 30
0.0
 10
1065.907244372064
 20
-585.278234434375
 30
0.0
 10
1065.326904966771
 20
-584.9980718293466
 30
0.0
 10
1065.043765722183
 20
-584.8613845259754
 30
0.0
  0
SPLINE
  5
1E5
330
1F
100
AcDbEntity
  8
0
  6
Continuous
 62
     7
370
    25
100
AcDbSpline
210
0.0
220
0.0
230
1.0
 70
     8
 71
     3
 72
    13
 73
     9
 74
     0
 42
0.00000001
 43
0.00000001
 40
0.0
 40
0.0
 40
0.0
 40
0.0
 40
0.0884811926552425
 40
0.3131877944236643
 40
0.5300342937928282
 40
0.739229775121202
 40
0.9449828409040999
 40
1.0
 40
1.0
 40
1.0
 40
1.0
 10
937.4463719674975
 20
-806.2522996346304
 30
0.0
 10
937.5681808073281
 20
-806.3231920174356
 30
0.0
 10
937.9993350531406
 20
-806.5741225072481
 30
0.0
 10
938.5742266757719
 20
-807.2813607918748
 30
0.0
 10
939.1529896166925
 20
-808.3691565474701
 30
0.0
 10
939.519769842612
 20
-809.6894456920616
 30
0.0
 10
939.6474406755882
 20
-810.8196712088908
 30
0.0
 10
939.6549042363539
 20
-811.4932561058091
 30
0.0
 10
939.6564788943128
 20
-811.6353686781151
 30
0.0
  0
SPLINE
  5
1E6
330
1F
100
AcDbEntity
  8
0
  6
Continuous
 62
     7
370
    25
100
AcDbSpline
210
0.0
220
0.0
230
1.0
 70
     8
 71
     3
 72
    23
 73
    19
 74
     0
 42
0.00000001
 43
0.00000001
 40
0.0
 40
0.0
 40
0.0
 40
0.0
 40
0.033589418317394
 40
0.098009068647264
 40
0.1626136377275724
 40
0.2273772989805845
 40
0.2922707044179091
 40
0.3572397387519112
 40
0.422222065524241
 40
0.4871348730787365
 40
0.5519085973445426
 40
0.6164811775628359
 40
0.6808078259984942
 40
0.7448964574291507
 40
0.8088825689857779
 40
0.8730223831884178
 40
0.9380494480027575
 40
0.9999999999999999
 40
0.9999999999999999
 40
0.9999999999999999
 40
0.9999999999999999
 10
939.6564788943128
 20
-811.6353686781151
 30
0.0
 10
939.6507520835187
 20
-811.9170994908956
 30
0.0
 10
939.6340420772021
 20
-812.7391492897024
 30
0.0
 10
939.4454371052325
 20
-814.200259057284
 30
0.0
 10
939.020814222395
 20
-816.0103439978791
 30
0.0
 10
938.3899063892898
 20
-817.8581320573855
 30
0.0
 10
937.5699656363641
 20
-819.6942079374504
 30
0.0
 10
936.5793137988643
 20
-821.4730229731543
 30
0.0
 10
935.442803149992
 20
-823.1493945102524
 30
0.0
 10
934.1895985527433
 20
-824.6812155812315
 30
0.0
 10
932.8528679774179
 20
-826.0304974375427
 30
0.0
 10
931.4687971968417
 20
-827.1647871384894
 30
0.0
 10
930.0756174020283
 20
-828.0586216640504
 30
0.0
 10
928.7126222426047
 20
-828.6942559756757
 30
0.0
 10
927.4169753385933
 20
-829.0656154340483
 30
0.0
 10
926.2250655023474
 20
-829.1686615496233
 30
0.0
 10
925.1701894527698
 20
-829.04196334676
 30
0.0
 10
924.5898500474765
 20
-828.7618007417316
 30
0.0
 10
924.3067108028881
 20
-828.6251134383602
 30
0.0
  0
SPLINE
  5
1E7
330
1F
100
AcDbEntity
  8
0
  6
Continuous
 62
     7
370
    25
100
AcDbSpline
210
0.0
220
0.0
230
1.0
 70
     8
 71
     3
 72
    13
 73
     9
 74
     0
 42
0.00000001
 43
0.00000001
 40
0.0
 40
0.0
 40
0.0
 40
0.0
 40
0.0884811926552542
 40
0.3131877944237117
 40
0.5300342937928854
 40
0.7392297751212323
 40
0.9449828409041683
 40
1.0
 40
1.0
 40
1.0
 40
1.0
 10
1088.911990345803
 20
-478.0743567522585
 30
0.0
 10
1089.033799185634
 20
-478.1452491350636
 30
0.0
 10
1089.464953431446
 20
-478.3961796248762
 30
0.0
 10
1090.039845054078
 20
-479.103417909503
 30
0.0
 10
1090.618607994998
 20
-480.1912136650984
 30
0.0
 10
1090.985388220918
 20
-481.5115028096899
 30
0.0
 10
1091.113059053894
 20
-482.6417283265191
 30
0.0
 10
1091.120522614659
 20
-483.3153132234373
 30
0.0
 10
1091.122097272618
 20
-483.4574257957432
 30
0.0
  0
SPLINE
  5
1E8
330
1F
100
AcDbEntity
  8
0
  6
Continuous
 62
     7
370
    25
100
AcDbSpline
210
0.0
220
0.0
230
1.0
 70
     8
 71
     3
 72
    23
 73
    19
 74
     0
 42
0.00000001
 43
0.00000001
 40
0.0
 40
0.0
 40
0.0
 40
0.0
 40
0.0335894183173928
 40
0.0980090686472838
 40
0.1626136377275914
 40
0.2273772989805979
 40
0.2922707044179374
 40
0.35723973875193
 40
0.4222220655242648
 40
0.4871348730787536
 40
0.5519085973445718
 40
0.6164811775628548
 40
0.6808078259985081
 40
0.7448964574291694
 40
0.808882568985805
 40
0.8730223831884404
 40
0.9380494480027801
 40
1.0
 40
1.0
 40
1.0
 40
1.0
 10
1091.122097272618
 20
-483.4574257957432
 30
0.0
 10
1091.116370461824
 20
-483.7391566085236
 30
0.0
 10
1091.099660455508
 20
-484.5612064073306
 30
0.0
 10
1090.911055483538
 20
-486.0223161749123
 30
0.0
 10
1090.4864326007
 20
-487.8324011155077
 30
0.0
 10
1089.855524767595
 20
-489.6801891750142
 30
0.0
 10
1089.03558401467
 20
-491.5162650550791
 30
0.0
 10
1088.04493217717
 20
-493.2950800907831
 30
0.0
 10
1086.908421528297
 20
-494.971451627881
 30
0.0
 10
1085.655216931048
 20
-496.5032726988601
 30
0.0
 10
1084.318486355723
 20
-497.8525545551712
 30
0.0
 10
1082.934415575147
 20
-498.9868442561178
 30
0.0
 10
1081.541235780334
 20
-499.8806787816787
 30
0.0
 10
1080.17824062091
 20
-500.516313093304
 30
0.0
 10
1078.882593716898
 20
-500.8876725516764
 30
0.0
 10
1077.690683880653
 20
-500.9907186672514
 30
0.0
 10
1076.635807831075
 20
-500.8640204643878
 30
0.0
 10
1076.055468425782
 20
-500.5838578593596
 30
0.0
 10
1075.772329181194
 20
-500.4471705559882
 30
0.0
  0
SPLINE
  5
1E9
330
1F
100
AcDbEntity
  8
0
  6
Continuous
 62
     7
370
    25
100
AcDbSpline
210
0.0
220
0.0
230
1.0
 70
     8
 71
     3
 72
    13
 73
     9
 74
     0
 42
0.00000001
 43
0.00000001
 40
0.0
 40
0.0
 40
0.0
 40
0.0
 40
0.0884811926553153
 40
0.3131877944237618
 40
0.5300342937929176
 40
0.7392297751212978
 40
0.9449828409042226
 40
0.9999999999999999
 40
0.9999999999999999
 40
0.9999999999999999
 40
0.9999999999999999
 10
869.708888177918
 20
-857.7452657694145
 30
0.0
 10
869.8306970177488
 20
-857.8161581522196
 30
0.0
 10
870.2618512635613
 20
-858.0670886420322
 30
0.0
 10
870.8367428861928
 20
-858.7743269266591
 30
0.0
 10
871.4155058271133
 20
-859.8621226822545
 30
0.0
 10
871.7822860530326
 20
-861.1824118268461
 30
0.0
 10
871.9099568860088
 20
-862.3126373436752
 30
0.0
 10
871.9174204467744
 20
-862.9862222405932
 30
0.0
 10
871.9189951047332
 20
-863.128334812899
 30
0.0
  0
SPLINE
  5
1EA
330
1F
100
AcDbEntity
  8
0
  6
Continuous
 62
     7
370
    25
100
AcDbSpline
210
0.0
220
0.0
230
1.0
 70
     8
 71
     3
 72
    23
 73
    19
 74
     0
 42
0.00000001
 43
0.00000001
 40
0.0
 40
0.0
 40
0.0
 40
0.0
 40
0.0335894183173939
 40
0.098009068647269
 40
0.1626136377275755
 40
0.2273772989805876
 40
0.2922707044179109
 40
0.3572397387519118
 40
0.4222220655242538
 40
0.4871348730787465
 40
0.5519085973445659
 40
0.6164811775628367
 40
0.6808078259984958
 40
0.7448964574291642
 40
0.808882568985804
 40
0.8730223831884318
 40
0.9380494480027854
 40
1.0
 40
1.0
 40
1.0
 40
1.0
 10
871.9189951047332
 20
-863.128334812899
 30
0.0
 10
871.9132682939392
 20
-863.4100656256795
 30
0.0
 10
871.8965582876227
 20
-864.2321154244863
 30
0.0
 10
871.707953315653
 20
-865.693225192068
 30
0.0
 10
871.2833304328153
 20
-867.503310132663
 30
0.0
 10
870.6524225997101
 20
-869.3510981921696
 30
0.0
 10
869.8324818467846
 20
-871.1871740722344
 30
0.0
 10
868.8418300092846
 20
-872.9659891079384
 30
0.0
 10
867.7053193604124
 20
-874.6423606450363
 30
0.0
 10
866.4521147631635
 20
-876.1741817160158
 30
0.0
 10
865.1153841878381
 20
-877.5234635723268
 30
0.0
 10
863.731313407262
 20
-878.6577532732733
 30
0.0
 10
862.3381336124487
 20
-879.5515877988344
 30
0.0
 10
860.9751384530248
 20
-880.1872221104596
 30
0.0
 10
859.6794915490134
 20
-880.5585815688322
 30
0.0
 10
858.4875817127675
 20
-880.6616276844072
 30
0.0
 10
857.43270566319
 20
-880.5349294815437
 30
0.0
 10
856.8523662578968
 20
-880.2547668765153
 30
0.0
 10
856.5692270133085
 20
-880.118079573144
 30
0.0
  0
SPLINE
  5
1EB
330
1F
100
AcDbEntity
  8
0
  6
Continuous
 62
     7
370
    25
100
AcDbSpline
210
0.0
220
0.0
230
1.0
 70
     8
 71
     3
 72
    13
 73
     9
 74
     0
 42
0.00000001
 43
0.00000001
 40
0.0
 40
0.0
 40
0.0
 40
0.0
 40
0.0884811926552336
 40
0.3131877944237071
 40
0.5300342937929016
 40
0.7392297751212272
 40
0.9449828409041791
 40
1.0
 40
1.0
 40
1.0
 40
1.0
 10
1078.183426886804
 20
-406.0470784886961
 30
0.0
 10
1078.305235726635
 20
-406.1179708715011
 30
0.0
 10
1078.736389972448
 20
-406.3689013613137
 30
0.0
 10
1079.311281595079
 20
-407.0761396459407
 30
0.0
 10
1079.890044536
 20
-408.1639354015358
 30
0.0
 10
1080.256824761919
 20
-409.4842245461275
 30
0.0
 10
1080.384495594895
 20
-410.6144500629567
 30
0.0
 10
1080.391959155661
 20
-411.2880349598749
 30
0.0
 10
1080.39353381362
 20
-411.4301475321807
 30
0.0
  0
SPLINE
  5
1EC
330
1F
100
AcDbEntity
  8
0
  6
Continuous
 62
     7
370
    25
100
AcDbSpline
210
0.0
220
0.0
230
1.0
 70
     8
 71
     3
 72
    23
 73
    19
 74
     0
 42
0.00000001
 43
0.00000001
 40
0.0
 40
0.0
 40
0.0
 40
0.0
 40
0.0335894183173929
 40
0.0980090686472837
 40
0.1626136377275912
 40
0.2273772989805978
 40
0.2922707044179376
 40
0.3572397387519307
 40
0.4222220655242692
 40
0.4871348730787632
 40
0.5519085973445812
 40
0.6164811775628604
 40
0.6808078259985153
 40
0.7448964574291768
 40
0.8088825689858109
 40
0.8730223831884452
 40
0.9380494480027844
 40
1.0
 40
1.0
 40
1.0
 40
1.0
 10
1080.39353381362
 20
-411.4301475321807
 30
0.0
 10
1080.387807002825
 20
-411.7118783449611
 30
0.0
 10
1080.371096996509
 20
-412.5339281437681
 30
0.0
 10
1080.182492024539
 20
-413.9950379113498
 30
0.0
 10
1079.757869141702
 20
-415.8051228519452
 30
0.0
 10
1079.126961308596
 20
-417.6529109114517
 30
0.0
 10
1078.307020555671
 20
-419.4889867915166
 30
0.0
 10
1077.316368718171
 20
-421.2678018272208
 30
0.0
 10
1076.179858069298
 20
-422.9441733643185
 30
0.0
 10
1074.926653472049
 20
-424.4759944352978
 30
0.0
 10
1073.589922896724
 20
-425.8252762916089
 30
0.0
 10
1072.205852116148
 20
-426.9595659925554
 30
0.0
 10
1070.812672321335
 20
-427.8534005181162
 30
0.0
 10
1069.449677161911
 20
-428.4890348297416
 30
0.0
 10
1068.154030257899
 20
-428.860394288114
 30
0.0
 10
1066.962120421653
 20
-428.9634404036888
 30
0.0
 10
1065.907244372076
 20
-428.8367422008254
 30
0.0
 10
1065.326904966783
 20
-428.556579595797
 30
0.0
 10
1065.043765722195
 20
-428.4198922924257
 30
0.0
  0
SPLINE
  5
1ED
330
1F
100
AcDbEntity
  8
0
  6
Continuous
 62
     7
370
    25
100
AcDbSpline
210
0.0
220
0.0
230
1.0
 70
     8
 71
     3
 72
    13
 73
     9
 74
     0
 42
0.00000001
 43
0.00000001
 40
0.0
 40
0.0
 40
0.0
 40
0.0
 40
0.0884811926552462
 40
0.3131877944236671
 40
0.5300342937928301
 40
0.7392297751212031
 40
0.9449828409041001
 40
1.0
 40
1.0
 40
1.0
 40
1.0
 10
801.9714043883403
 20
-884.460333713252
 30
0.0
 10
802.0932132281708
 20
-884.5312260960571
 30
0.0
 10
802.5243674739833
 20
-884.7821565858695
 30
0.0
 10
803.0992590966148
 20
-885.4893948704965
 30
0.0
 10
803.6780220375352
 20
-886.5771906260916
 30
0.0
 10
804.044802263455
 20
-887.8974797706832
 30
0.0
 10
804.1724730964312
 20
-889.0277052875124
 30
0.0
 10
804.1799366571967
 20
-889.7012901844306
 30
0.0
 10
804.1815113151556
 20
-889.8434027567366
 30
0.0
  0
SPLINE
  5
1EE
330
1F
100
AcDbEntity
  8
0
  6
Continuous
 62
     7
370
    25
100
AcDbSpline
210
0.0
220
0.0
230
1.0
 70
     8
 71
     3
 72
    23
 73
    19
 74
     0
 42
0.00000001
 43
0.00000001
 40
0.0
 40
0.0
 40
0.0
 40
0.0
 40
0.0335894183173939
 40
0.0980090686472638
 40
0.1626136377275721
 40
0.2273772989805842
 40
0.2922707044179087
 40
0.3572397387519107
 40
0.4222220655242405
 40
0.4871348730787359
 40
0.5519085973445419
 40
0.6164811775628352
 40
0.6808078259984933
 40
0.7448964574291498
 40
0.8088825689857768
 40
0.8730223831884167
 40
0.9380494480027562
 40
1.0
 40
1.0
 40
1.0
 40
1.0
 10
804.1815113151556
 20
-889.8434027567366
 30
0.0
 10
804.1757845043616
 20
-890.1251335695172
 30
0.0
 10
804.159074498045
 20
-890.9471833683237
 30
0.0
 10
803.9704695260754
 20
-892.4082931359056
 30
0.0
 10
803.5458466432377
 20
-894.2183780765006
 30
0.0
 10
802.9149388101325
 20
-896.0661661360072
 30
0.0
 10
802.094998057207
 20
-897.902242016072
 30
0.0
 10
801.1043462197072
 20
-899.681057051776
 30
0.0
 10
799.9678355708348
 20
-901.3574285888739
 30
0.0
 10
798.7146309735862
 20
-902.889249659853
 30
0.0
 10
797.3779003982607
 20
-904.2385315161644
 30
0.0
 10
795.9938296176846
 20
-905.3728212171109
 30
0.0
 10
794.6006498228712
 20
-906.266655742672
 30
0.0
 10
793.2376546634474
 20
-906.9022900542974
 30
0.0
 10
791.9420077594361
 20
-907.2736495126699
 30
0.0
 10
790.7500979231902
 20
-907.376695628245
 30
0.0
 10
789.6952218736126
 20
-907.2499974253815
 30
0.0
 10
789.1148824683194
 20
-906.969834820353
 30
0.0
 10
788.831743223731
 20
-906.8331475169817
 30
0.0
  0
SPLINE
  5
1EF
330
1F
100
AcDbEntity
  8
0
  6
Continuous
 62
     7
370
    25
100
AcDbSpline
210
0.0
220
0.0
230
1.0
 70
     8
 71
     3
 72
    13
 73
     9
 74
     0
 42
0.00000001
 43
0.00000001
 40
0.0
 40
0.0
 40
0.0
 40
0.0
 40
0.088481192655306
 40
0.3131877944237536
 40
0.5300342937929327
 40
0.7392297751212856
 40
0.9449828409042662
 40
1.0
 40
1.0
 40
1.0
 40
1.0
 10
1047.04792305146
 20
-353.4572677715527
 30
0.0
 10
1047.169731891291
 20
-353.5281601543579
 30
0.0
 10
1047.600886137103
 20
-353.7790906441703
 30
0.0
 10
1048.175777759735
 20
-354.4863289287977
 30
0.0
 10
1048.754540700655
 20
-355.5741246843926
 30
0.0
 10
1049.121320926574
 20
-356.8944138289846
 30
0.0
 10
1049.248991759551
 20
-358.0246393458135
 30
0.0
 10
1049.256455320316
 20
-358.6982242427316
 30
0.0
 10
1049.258029978275
 20
-358.8403368150372
 30
0.0
  0
SPLINE
  5
1F0
330
1F
100
AcDbEntity
  8
0
  6
Continuous
 62
     7
370
    25
100
AcDbSpline
210
0.0
220
0.0
230
1.0
 70
     8
 71
     3
 72
    23
 73
    19
 74
     0
 42
0.00000001
 43
0.00000001
 40
0.0
 40
0.0
 40
0.0
 40
0.0
 40
0.0335894183173924
 40
0.0980090686473238
 40
0.1626136377276254
 40
0.2273772989806377
 40
0.2922707044179697
 40
0.3572397387519673
 40
0.4222220655243022
 40
0.4871348730787979
 40
0.5519085973446146
 40
0.6164811775628916
 40
0.6808078259985507
 40
0.744896457429213
 40
0.8088825689858513
 40
0.8730223831884841
 40
0.93804944800282
 40
1.0
 40
1.0
 40
1.0
 40
1.0
 10
1049.258029978275
 20
-358.8403368150372
 30
0.0
 10
1049.252303167481
 20
-359.1220676278176
 30
0.0
 10
1049.235593161165
 20
-359.9441174266249
 30
0.0
 10
1049.046988189195
 20
-361.4052271942072
 30
0.0
 10
1048.622365306357
 20
-363.2153121348028
 30
0.0
 10
1047.991457473251
 20
-365.0631001943094
 30
0.0
 10
1047.171516720326
 20
-366.8991760743742
 30
0.0
 10
1046.180864882826
 20
-368.6779911100783
 30
0.0
 10
1045.044354233953
 20
-370.3543626471761
 30
0.0
 10
1043.791149636704
 20
-371.8861837181552
 30
0.0
 10
1042.454419061379
 20
-373.2354655744662
 30
0.0
 10
1041.070348280802
 20
-374.3697552754126
 30
0.0
 10
1039.677168485989
 20
-375.2635898009733
 30
0.0
 10
1038.314173326565
 20
-375.8992241125986
 30
0.0
 10
1037.018526422554
 20
-376.2705835709706
 30
0.0
 10
1035.826616586308
 20
-376.3736296865454
 30
0.0
 10
1034.771740536731
 20
-376.2469314836818
 30
0.0
 10
1034.191401131438
 20
-375.9667688786533
 30
0.0
 10
1033.90826188685
 20
-375.830081575282
 30
0.0
  0
SPLINE
  5
1F1
330
1F
100
AcDbEntity
  8
0
  6
Continuous
 62
     7
370
    25
100
AcDbSpline
210
0.0
220
0.0
230
1.0
 70
     8
 71
     3
 72
    13
 73
     9
 74
     0
 42
0.00000001
 43
0.00000001
 40
0.0
 40
0.0
 40
0.0
 40
0.0
 40
0.0884811926550863
 40
0.3131877944235225
 40
0.5300342937926793
 40
0.7392297751210378
 40
0.9449828409039455
 40
1.0
 40
1.0
 40
1.0
 40
1.0
 10
740.8645374668891
 20
-883.7824464809773
 30
0.0
 10
740.9863463067196
 20
-883.8533388637823
 30
0.0
 10
741.4175005525319
 20
-884.1042693535945
 30
0.0
 10
741.9923921751633
 20
-884.811507638221
 30
0.0
 10
742.571155116084
 20
-885.899303393816
 30
0.0
 10
742.9379353420038
 20
-887.2195925384075
 30
0.0
 10
743.0656061749803
 20
-888.3498180552372
 30
0.0
 10
743.0730697357458
 20
-889.0234029521557
 30
0.0
 10
743.0746443937047
 20
-889.1655155244622
 30
0.0
  0
SPLINE
  5
1F2
330
1F
100
AcDbEntity
  8
0
  6
Continuous
 62
     7
370
    25
100
AcDbSpline
210
0.0
220
0.0
230
1.0
 70
     8
 71
     3
 72
    23
 73
    19
 74
     0
 42
0.00000001
 43
0.00000001
 40
0.0
 40
0.0
 40
0.0
 40
0.0
 40
0.0335894183173943
 40
0.0980090686472647
 40
0.1626136377275719
 40
0.2273772989805838
 40
0.2922707044179135
 40
0.357239738751907
 40
0.4222220655242316
 40
0.4871348730787051
 40
0.5519085973445395
 40
0.6164811775628123
 40
0.6808078259984632
 40
0.7448964574291335
 40
0.8088825689857632
 40
0.8730223831883958
 40
0.9380494480027317
 40
0.9999999999999999
 40
0.9999999999999999
 40
0.9999999999999999
 40
0.9999999999999999
 10
743.0746443937047
 20
-889.1655155244622
 30
0.0
 10
743.0689175829106
 20
-889.4472463372427
 30
0.0
 10
743.0522075765941
 20
-890.2692961360494
 30
0.0
 10
742.8636026046246
 20
-891.7304059036311
 30
0.0
 10
742.4389797217868
 20
-893.5404908442262
 30
0.0
 10
741.8080718886818
 20
-895.3882789037326
 30
0.0
 10
740.9881311357562
 20
-897.2243547837975
 30
0.0
 10
739.9974792982563
 20
-899.0031698195013
 30
0.0
 10
738.8609686493843
 20
-900.679541356599
 30
0.0
 10
737.6077640521357
 20
-902.2113624275783
 30
0.0
 10
736.2710334768103
 20
-903.5606442838894
 30
0.0
 10
734.8869626962343
 20
-904.694933984836
 30
0.0
 10
733.493782901421
 20
-905.5887685103971
 30
0.0
 10
732.1307877419971
 20
-906.2244028220226
 30
0.0
 10
730.8351408379857
 20
-906.5957622803953
 30
0.0
 10
729.6432310017399
 20
-906.6988083959704
 30
0.0
 10
728.5883549521621
 20
-906.5721101931072
 30
0.0
 10
728.0080155468687
 20
-906.2919475880789
 30
0.0
 10
727.7248763022801
 20
-906.1552602847074
 30
0.0
  0
SPLINE
  5
1F3
330
1F
100
AcDbEntity
  8
0
  6
Continuous
 62
     7
370
    25
100
AcDbSpline
210
0.0
220
0.0
230
1.0
 70
     8
 71
     3
 72
    13
 73
     9
 74
     0
 42
0.00000001
 43
0.00000001
 40
0.0
 40
0.0
 40
0.0
 40
0.0
 40
0.0884811926552758
 40
0.3131877944237271
 40
0.5300342937928924
 40
0.7392297751212947
 40
0.944982840904205
 40
1.0
 40
1.0
 40
1.0
 40
1.0
 10
998.5532388889844
 20
-325.4527816885789
 30
0.0
 10
998.675047728815
 20
-325.523674071384
 30
0.0
 10
999.1062019746275
 20
-325.7746045611967
 30
0.0
 10
999.681093597259
 20
-326.4818428458237
 30
0.0
 10
1000.25985653818
 20
-327.5696386014189
 30
0.0
 10
1000.626636764099
 20
-328.8899277460106
 30
0.0
 10
1000.754307597075
 20
-330.0201532628399
 30
0.0
 10
1000.76177115784
 20
-330.6937381597577
 30
0.0
 10
1000.7633458158
 20
-330.8358507320635
 30
0.0
  0
SPLINE
  5
1F4
330
1F
100
AcDbEntity
  8
0
  6
Continuous
 62
     7
370
    25
100
AcDbSpline
210
0.0
220
0.0
230
1.0
 70
     8
 71
     3
 72
    23
 73
    19
 74
     0
 42
0.00000001
 43
0.00000001
 40
0.0
 40
0.0
 40
0.0
 40
0.0
 40
0.033589418317393
 40
0.0980090686472627
 40
0.1626136377275712
 40
0.2273772989805812
 40
0.2922707044179171
 40
0.3572397387519155
 40
0.422222065524253
 40
0.4871348730787498
 40
0.5519085973445648
 40
0.6164811775628491
 40
0.6808078259985054
 40
0.7448964574291651
 40
0.8088825689857968
 40
0.8730223831884342
 40
0.9380494480027702
 40
1.0
 40
1.0
 40
1.0
 40
1.0
 10
1000.7633458158
 20
-330.8358507320635
 30
0.0
 10
1000.757619005005
 20
-331.117581544844
 30
0.0
 10
1000.740908998689
 20
-331.9396313436508
 30
0.0
 10
1000.552304026719
 20
-333.4007411112323
 30
0.0
 10
1000.127681143882
 20
-335.2108260518274
 30
0.0
 10
999.4967733107765
 20
-337.0586141113341
 30
0.0
 10
998.6768325578508
 20
-338.8946899913989
 30
0.0
 10
997.6861807203509
 20
-340.6735050271031
 30
0.0
 10
996.5496700714785
 20
-342.3498765642009
 30
0.0
 10
995.2964654742298
 20
-343.8816976351803
 30
0.0
 10
993.9597348989042
 20
-345.2309794914914
 30
0.0
 10
992.5756641183281
 20
-346.3652691924381
 30
0.0
 10
991.1824843235148
 20
-347.259103717999
 30
0.0
 10
989.819489164091
 20
-347.8947380296242
 30
0.0
 10
988.5238422600796
 20
-348.2660974879968
 30
0.0
 10
987.3319324238338
 20
-348.3691436035717
 30
0.0
 10
986.2770563742563
 20
-348.2424454007083
 30
0.0
 10
985.6967169689631
 20
-347.9622827956799
 30
0.0
 10
985.4135777243748
 20
-347.8255954923086
 30
0.0
  0
SPLINE
  5
1F5
330
1F
100
AcDbEntity
  8
0
  6
Continuous
 62
     7
370
    25
100
AcDbSpline
210
0.0
220
0.0
230
1.0
 70
     8
 71
     3
 72
    13
 73
     9
 74
     0
 42
0.00000001
 43
0.00000001
 40
0.0
 40
0.0
 40
0.0
 40
0.0
 40
0.0884811926551997
 40
0.3131877944236085
 40
0.5300342937927877
 40
0.7392297751211373
 40
0.9449828409040602
 40
1.0
 40
1.0
 40
1.0
 40
1.0
 10
692.3698533044139
 20
-855.7779603980038
 30
0.0
 10
692.4916621442445
 20
-855.8488527808089
 30
0.0
 10
692.9228163900569
 20
-856.0997832706213
 30
0.0
 10
693.4977080126882
 20
-856.8070215552482
 30
0.0
 10
694.0764709536089
 20
-857.8948173108431
 30
0.0
 10
694.4432511795285
 20
-859.2151064554346
 30
0.0
 10
694.5709220125049
 20
-860.345331972264
 30
0.0
 10
694.5783855732703
 20
-861.0189168691824
 30
0.0
 10
694.5799602312293
 20
-861.1610294414885
 30
0.0
  0
SPLINE
  5
1F6
330
1F
100
AcDbEntity
  8
0
  6
Continuous
 62
     7
370
    25
100
AcDbSpline
210
0.0
220
0.0
230
1.0
 70
     8
 71
     3
 72
    23
 73
    19
 74
     0
 42
0.00000001
 43
0.00000001
 40
0.0
 40
0.0
 40
0.0
 40
0.0
 40
0.0335894183173929
 40
0.0980090686472624
 40
0.1626136377275706
 40
0.2273772989805804
 40
0.2922707044179161
 40
0.3572397387519143
 40
0.4222220655242516
 40
0.4871348730787481
 40
0.5519085973445647
 40
0.6164811775628525
 40
0.6808078259985004
 40
0.7448964574291618
 40
0.8088825689857951
 40
0.8730223831884302
 40
0.9380494480027661
 40
1.0
 40
1.0
 40
1.0
 40
1.0
 10
694.5799602312293
 20
-861.1610294414885
 30
0.0
 10
694.5742334204352
 20
-861.4427602542689
 30
0.0
 10
694.5575234141186
 20
-862.2648100530758
 30
0.0
 10
694.368918442149
 20
-863.7259198206575
 30
0.0
 10
693.9442955593114
 20
-865.5360047612526
 30
0.0
 10
693.3133877262062
 20
-867.383792820759
 30
0.0
 10
692.4934469732806
 20
-869.2198687008239
 30
0.0
 10
691.5027951357806
 20
-870.9986837365282
 30
0.0
 10
690.3662844869083
 20
-872.675055273626
 30
0.0
 10
689.1130798896594
 20
-874.2068763446053
 30
0.0
 10
687.7763493143339
 20
-875.5561582009166
 30
0.0
 10
686.3922785337577
 20
-876.6904479018631
 30
0.0
 10
684.9990987389444
 20
-877.584282427424
 30
0.0
 10
683.6361035795207
 20
-878.2199167390493
 30
0.0
 10
682.3404566755094
 20
-878.5912761974217
 30
0.0
 10
681.1485468392635
 20
-878.6943223129969
 30
0.0
 10
680.093670789686
 20
-878.5676241101332
 30
0.0
 10
679.5133313843929
 20
-878.2874615051048
 30
0.0
 10
679.2301921398046
 20
-878.1507742017336
 30
0.0
  0
SPLINE
  5
1F7
330
1F
100
AcDbEntity
  8
0
  6
Continuous
 62
     7
370
    25
100
AcDbSpline
210
0.0
220
0.0
230
1.0
 70
     8
 71
     3
 72
    13
 73
     9
 74
     0
 42
0.00000001
 43
0.00000001
 40
0.0
 40
0.0
 40
0.0
 40
0.0
 40
0.0884811926552298
 40
0.3131877944236834
 40
0.5300342937928151
 40
0.7392297751211951
 40
0.9449828409041223
 40
1.0
 40
1.0
 40
1.0
 40
1.0
 10
937.4463719675333
 20
-324.7748944563043
 30
0.0
 10
937.5681808073639
 20
-324.8457868391094
 30
0.0
 10
937.9993350531763
 20
-325.096717328922
 30
0.0
 10
938.574226675808
 20
-325.8039556135486
 30
0.0
 10
939.1529896167283
 20
-326.8917513691439
 30
0.0
 10
939.519769842648
 20
-328.2120405137355
 30
0.0
 10
939.6474406756242
 20
-329.3422660305646
 30
0.0
 10
939.6549042363897
 20
-330.0158509274831
 30
0.0
 10
939.6564788943487
 20
-330.157963499789
 30
0.0
  0
SPLINE
  5
1F8
330
1F
100
AcDbEntity
  8
0
  6
Continuous
 62
     7
370
    25
100
AcDbSpline
210
0.0
220
0.0
230
1.0
 70
     8
 71
     3
 72
    23
 73
    19
 74
     0
 42
0.00000001
 43
0.00000001
 40
0.0
 40
0.0
 40
0.0
 40
0.0
 40
0.033589418317394
 40
0.098009068647264
 40
0.1626136377275708
 40
0.2273772989805845
 40
0.2922707044179114
 40
0.3572397387519166
 40
0.4222220655242472
 40
0.487134873078743
 40
0.5519085973445625
 40
0.616481177562846
 40
0.6808078259984944
 40
0.7448964574291523
 40
0.8088825689857814
 40
0.8730223831884122
 40
0.9380494480027547
 40
0.9999999999999999
 40
0.9999999999999999
 40
0.9999999999999999
 40
0.9999999999999999
 10
939.6564788943487
 20
-330.157963499789
 30
0.0
 10
939.6507520835545
 20
-330.4396943125695
 30
0.0
 10
939.634042077238
 20
-331.2617441113762
 30
0.0
 10
939.4454371052684
 20
-332.7228538789579
 30
0.0
 10
939.0208142224308
 20
-334.532938819553
 30
0.0
 10
938.3899063893256
 20
-336.3807268790595
 30
0.0
 10
937.5699656364001
 20
-338.2168027591243
 30
0.0
 10
936.5793137989
 20
-339.9956177948284
 30
0.0
 10
935.4428031500278
 20
-341.6719893319263
 30
0.0
 10
934.1895985527791
 20
-343.2038104029057
 30
0.0
 10
932.8528679774535
 20
-344.5530922592169
 30
0.0
 10
931.4687971968774
 20
-345.6873819601635
 30
0.0
 10
930.0756174020643
 20
-346.5812164857244
 30
0.0
 10
928.7126222426404
 20
-347.2168507973497
 30
0.0
 10
927.4169753386291
 20
-347.5882102557221
 30
0.0
 10
926.2250655023832
 20
-347.6912563712974
 30
0.0
 10
925.1701894528057
 20
-347.5645581684338
 30
0.0
 10
924.5898500475125
 20
-347.2843955634054
 30
0.0
 10
924.306710802924
 20
-347.1477082600341
 30
0.0
  0
SPLINE
  5
1F9
330
1F
100
AcDbEntity
  8
0
  6
Continuous
 62
     7
370
    25
100
AcDbSpline
210
0.0
220
0.0
230
1.0
 70
     8
 71
     3
 72
    13
 73
     9
 74
     0
 42
0.00000001
 43
0.00000001
 40
0.0
 40
0.0
 40
0.0
 40
0.0
 40
0.0884811926553029
 40
0.3131877944237853
 40
0.5300342937929468
 40
0.7392297751213223
 40
0.9449828409042513
 40
1.0
 40
1.0
 40
1.0
 40
1.0
 10
661.2343494690696
 20
-803.1881496808605
 30
0.0
 10
661.3561583089003
 20
-803.2590420636657
 30
0.0
 10
661.7873125547129
 20
-803.5099725534782
 30
0.0
 10
662.3622041773444
 20
-804.2172108381053
 30
0.0
 10
662.9409671182647
 20
-805.3050065937009
 30
0.0
 10
663.3077473441842
 20
-806.6252957382924
 30
0.0
 10
663.4354181771603
 20
-807.7555212551215
 30
0.0
 10
663.4428817379257
 20
-808.4291061520395
 30
0.0
 10
663.4444563958847
 20
-808.571218724345
 30
0.0
  0
SPLINE
  5
1FA
330
1F
100
AcDbEntity
  8
0
  6
Continuous
 62
     7
370
    25
100
AcDbSpline
210
0.0
220
0.0
230
1.0
 70
     8
 71
     3
 72
    23
 73
    19
 74
     0
 42
0.00000001
 43
0.00000001
 40
0.0
 40
0.0
 40
0.0
 40
0.0
 40
0.0335894183173926
 40
0.0980090686473249
 40
0.1626136377276274
 40
0.2273772989806408
 40
0.2922707044179598
 40
0.3572397387519707
 40
0.4222220655242944
 40
0.4871348730787816
 40
0.5519085973446013
 40
0.6164811775628829
 40
0.6808078259985355
 40
0.744896457429197
 40
0.8088825689858317
 40
0.8730223831884673
 40
0.9380494480028069
 40
1.0
 40
1.0
 40
1.0
 40
1.0
 10
663.4444563958847
 20
-808.571218724345
 30
0.0
 10
663.4387295850905
 20
-808.8529495371255
 30
0.0
 10
663.4220195787741
 20
-809.6749993359326
 30
0.0
 10
663.2334146068042
 20
-811.136109103515
 30
0.0
 10
662.8087917239664
 20
-812.9461940441107
 30
0.0
 10
662.1778838908608
 20
-814.7939821036172
 30
0.0
 10
661.3579431379354
 20
-816.630057983682
 30
0.0
 10
660.3672913004351
 20
-818.408873019386
 30
0.0
 10
659.2307806515629
 20
-820.0852445564836
 30
0.0
 10
657.9775760543141
 20
-821.6170656274627
 30
0.0
 10
656.6408454789886
 20
-822.9663474837737
 30
0.0
 10
655.2567746984124
 20
-824.1006371847202
 30
0.0
 10
653.8635949035992
 20
-824.994471710281
 30
0.0
 10
652.5005997441754
 20
-825.6301060219062
 30
0.0
 10
651.2049528401639
 20
-826.0014654802784
 30
0.0
 10
650.0130430039183
 20
-826.1045115958532
 30
0.0
 10
648.958166954341
 20
-825.9778133929897
 30
0.0
 10
648.3778275490479
 20
-825.6976507879613
 30
0.0
 10
648.09468830446
 20
-825.5609634845899
 30
0.0
  0
SPLINE
  5
1FB
330
1F
100
AcDbEntity
  8
0
  6
Continuous
 62
     7
370
    25
100
AcDbSpline
210
0.0
220
0.0
230
1.0
 70
     8
 71
     3
 72
    13
 73
     9
 74
     0
 42
0.00000001
 43
0.00000001
 40
0.0
 40
0.0
 40
0.0
 40
0.0
 40
0.0884811926553146
 40
0.3131877944237609
 40
0.5300342937929226
 40
0.7392297751213034
 40
0.944982840904217
 40
1.0
 40
1.0
 40
1.0
 40
1.0
 10
869.7088881779558
 20
-351.4899624001421
 30
0.0
 10
869.8306970177865
 20
-351.5608547829473
 30
0.0
 10
870.261851263599
 20
-351.8117852727599
 30
0.0
 10
870.8367428862306
 20
-352.5190235573871
 30
0.0
 10
871.415505827151
 20
-353.6068193129823
 30
0.0
 10
871.7822860530704
 20
-354.9271084575739
 30
0.0
 10
871.9099568860465
 20
-356.057333974403
 30
0.0
 10
871.9174204468121
 20
-356.730918871321
 30
0.0
 10
871.918995104771
 20
-356.8730314436268
 30
0.0
  0
SPLINE
  5
1FC
330
1F
100
AcDbEntity
  8
0
  6
Continuous
 62
     7
370
    25
100
AcDbSpline
210
0.0
220
0.0
230
1.0
 70
     8
 71
     3
 72
    23
 73
    19
 74
     0
 42
0.00000001
 43
0.00000001
 40
0.0
 40
0.0
 40
0.0
 40
0.0
 40
0.0335894183173939
 40
0.0980090686472691
 40
0.1626136377275757
 40
0.2273772989805879
 40
0.2922707044179112
 40
0.3572397387519122
 40
0.4222220655242543
 40
0.487134873078747
 40
0.5519085973445664
 40
0.6164811775628374
 40
0.6808078259984965
 40
0.7448964574291651
 40
0.8088825689858049
 40
0.8730223831884328
 40
0.9380494480027864
 40
0.9999999999999999
 40
0.9999999999999999
 40
0.9999999999999999
 40
0.9999999999999999
 10
871.918995104771
 20
-356.8730314436268
 30
0.0
 10
871.9132682939769
 20
-357.1547622564072
 30
0.0
 10
871.8965582876605
 20
-357.9768120552141
 30
0.0
 10
871.7079533156907
 20
-359.4379218227957
 30
0.0
 10
871.2833304328531
 20
-361.2480067633908
 30
0.0
 10
870.6524225997479
 20
-363.0957948228972
 30
0.0
 10
869.8324818468224
 20
-364.9318707029622
 30
0.0
 10
868.8418300093224
 20
-366.7106857386662
 30
0.0
 10
867.7053193604501
 20
-368.3870572757643
 30
0.0
 10
866.4521147632012
 20
-369.9188783467435
 30
0.0
 10
865.1153841878759
 20
-371.2681602030547
 30
0.0
 10
863.7313134072997
 20
-372.4024499040012
 30
0.0
 10
862.3381336124864
 20
-373.296284429562
 30
0.0
 10
860.9751384530624
 20
-373.9319187411875
 30
0.0
 10
859.679491549051
 20
-374.30327819956
 30
0.0
 10
858.4875817128051
 20
-374.406324315135
 30
0.0
 10
857.4327056632278
 20
-374.2796261122714
 30
0.0
 10
856.8523662579346
 20
-373.999463507243
 30
0.0
 10
856.5692270133462
 20
-373.8627762038718
 30
0.0
  0
SPLINE
  5
1FD
330
1F
100
AcDbEntity
  8
0
  6
Continuous
 62
     7
370
    25
100
AcDbSpline
210
0.0
220
0.0
230
1.0
 70
     8
 71
     3
 72
    13
 73
     9
 74
     0
 42
0.00000001
 43
0.00000001
 40
0.0
 40
0.0
 40
0.0
 40
0.0
 40
0.0884811926552332
 40
0.3131877944236969
 40
0.530034293792874
 40
0.739229775121262
 40
0.9449828409041326
 40
1.0
 40
1.0
 40
1.0
 40
1.0
 10
650.5057860100704
 20
-731.1608714172979
 30
0.0
 10
650.627594849901
 20
-731.2317638001031
 30
0.0
 10
651.0587490957136
 20
-731.4826942899156
 30
0.0
 10
651.633640718345
 20
-732.1899325745425
 30
0.0
 10
652.2124036592654
 20
-733.277728330138
 30
0.0
 10
652.5791838851851
 20
-734.5980174747293
 30
0.0
 10
652.7068547181613
 20
-735.7282429915585
 30
0.0
 10
652.7143182789268
 20
-736.4018278884766
 30
0.0
 10
652.7158929368857
 20
-736.5439404607826
 30
0.0
  0
SPLINE
  5
1FE
330
1F
100
AcDbEntity
  8
0
  6
Continuous
 62
     7
370
    25
100
AcDbSpline
210
0.0
220
0.0
230
1.0
 70
     8
 71
     3
 72
    23
 73
    19
 74
     0
 42
0.00000001
 43
0.00000001
 40
0.0
 40
0.0
 40
0.0
 40
0.0
 40
0.0335894183173928
 40
0.0980090686472838
 40
0.1626136377275914
 40
0.2273772989805979
 40
0.2922707044179374
 40
0.35723973875193
 40
0.4222220655242648
 40
0.4871348730787536
 40
0.5519085973445718
 40
0.6164811775628548
 40
0.6808078259985081
 40
0.7448964574291694
 40
0.808882568985805
 40
0.8730223831884404
 40
0.9380494480027801
 40
1.0
 40
1.0
 40
1.0
 40
1.0
 10
652.7158929368857
 20
-736.5439404607826
 30
0.0
 10
652.7101661260916
 20
-736.825671273563
 30
0.0
 10
652.6934561197753
 20
-737.6477210723699
 30
0.0
 10
652.5048511478053
 20
-739.1088308399518
 30
0.0
 10
652.0802282649677
 20
-740.9189157805472
 30
0.0
 10
651.4493204318625
 20
-742.7667038400537
 30
0.0
 10
650.6293796789369
 20
-744.6027797201185
 30
0.0
 10
649.6387278414369
 20
-746.3815947558226
 30
0.0
 10
648.5022171925646
 20
-748.0579662929204
 30
0.0
 10
647.2490125953159
 20
-749.5897873638995
 30
0.0
 10
645.9122820199902
 20
-750.9390692202107
 30
0.0
 10
644.5282112394142
 20
-752.0733589211573
 30
0.0
 10
643.1350314446009
 20
-752.9671934467182
 30
0.0
 10
641.7720362851771
 20
-753.6028277583434
 30
0.0
 10
640.4763893811657
 20
-753.9741872167158
 30
0.0
 10
639.2844795449197
 20
-754.0772333322908
 30
0.0
 10
638.2296034953424
 20
-753.9505351294272
 30
0.0
 10
637.6492640900493
 20
-753.670372524399
 30
0.0
 10
637.366124845461
 20
-753.5336852210276
 30
0.0
  0
SPLINE
  5
1FF
330
1F
100
AcDbEntity
  8
0
  6
Continuous
 62
     7
370
    25
100
AcDbSpline
210
0.0
220
0.0
230
1.0
 70
     8
 71
     3
 72
    13
 73
     9
 74
     0
 42
0.00000001
 43
0.00000001
 40
0.0
 40
0.0
 40
0.0
 40
0.0
 40
0.0884811926552462
 40
0.3131877944236671
 40
0.5300342937928301
 40
0.7392297751212031
 40
0.9449828409041001
 40
1.0
 40
1.0
 40
1.0
 40
1.0
 10
801.9714043883761
 20
-402.9829285349259
 30
0.0
 10
802.0932132282067
 20
-403.053820917731
 30
0.0
 10
802.5243674740191
 20
-403.3047514075434
 30
0.0
 10
803.0992590966506
 20
-404.0119896921702
 30
0.0
 10
803.678022037571
 20
-405.0997854477656
 30
0.0
 10
804.0448022634907
 20
-406.420074592357
 30
0.0
 10
804.172473096467
 20
-407.5503001091863
 30
0.0
 10
804.1799366572325
 20
-408.2238850061046
 30
0.0
 10
804.1815113151914
 20
-408.3659975784107
 30
0.0
  0
SPLINE
  5
200
330
1F
100
AcDbEntity
  8
0
  6
Continuous
 62
     7
370
    25
100
AcDbSpline
210
0.0
220
0.0
230
1.0
 70
     8
 71
     3
 72
    23
 73
    19
 74
     0
 42
0.00000001
 43
0.00000001
 40
0.0
 40
0.0
 40
0.0
 40
0.0
 40
0.033589418317394
 40
0.098009068647264
 40
0.1626136377275723
 40
0.2273772989805845
 40
0.292270704417909
 40
0.3572397387519111
 40
0.4222220655242409
 40
0.4871348730787364
 40
0.5519085973445425
 40
0.6164811775628358
 40
0.6808078259984941
 40
0.7448964574291506
 40
0.8088825689857777
 40
0.8730223831884176
 40
0.9380494480027574
 40
1.0
 40
1.0
 40
1.0
 40
1.0
 10
804.1815113151914
 20
-408.3659975784107
 30
0.0
 10
804.1757845043973
 20
-408.647728391191
 30
0.0
 10
804.1590744980808
 20
-409.4697781899977
 30
0.0
 10
803.9704695261112
 20
-410.9308879575795
 30
0.0
 10
803.5458466432735
 20
-412.7409728981745
 30
0.0
 10
802.9149388101685
 20
-414.588760957681
 30
0.0
 10
802.094998057243
 20
-416.4248368377459
 30
0.0
 10
801.1043462197429
 20
-418.2036518734499
 30
0.0
 10
799.9678355708705
 20
-419.8800234105478
 30
0.0
 10
798.7146309736221
 20
-421.411844481527
 30
0.0
 10
797.3779003982964
 20
-422.7611263378381
 30
0.0
 10
795.9938296177204
 20
-423.8954160387849
 30
0.0
 10
794.600649822907
 20
-424.7892505643459
 30
0.0
 10
793.2376546634832
 20
-425.4248848759712
 30
0.0
 10
791.9420077594718
 20
-425.7962443343437
 30
0.0
 10
790.750097923226
 20
-425.8992904499189
 30
0.0
 10
789.6952218736485
 20
-425.7725922470555
 30
0.0
 10
789.1148824683552
 20
-425.492429642027
 30
0.0
 10
788.8317432237667
 20
-425.3557423386557
 30
0.0
  0
SPLINE
  5
201
330
1F
100
AcDbEntity
  8
0
  6
Continuous
 62
     7
370
    25
100
AcDbSpline
210
0.0
220
0.0
230
1.0
 70
     8
 71
     3
 72
    13
 73
     9
 74
     0
 42
0.00000001
 43
0.00000001
 40
0.0
 40
0.0
 40
0.0
 40
0.0
 40
0.0884811926552748
 40
0.3131877944236805
 40
0.5300342937928474
 40
0.7392297751212278
 40
0.9449828409041268
 40
1.0
 40
1.0
 40
1.0
 40
1.0
 10
661.234349469081
 20
-646.7466574473108
 30
0.0
 10
661.3561583089119
 20
-646.8175498301158
 30
0.0
 10
661.7873125547243
 20
-647.0684803199283
 30
0.0
 10
662.3622041773556
 20
-647.7757186045553
 30
0.0
 10
662.9409671182761
 20
-648.8635143601506
 30
0.0
 10
663.3077473441956
 20
-650.183803504742
 30
0.0
 10
663.435418177172
 20
-651.3140290215712
 30
0.0
 10
663.4428817379375
 20
-651.9876139184895
 30
0.0
 10
663.4444563958963
 20
-652.1297264907954
 30
0.0
  0
SPLINE
  5
202
330
1F
100
AcDbEntity
  8
0
  6
Continuous
 62
     7
370
    25
100
AcDbSpline
210
0.0
220
0.0
230
1.0
 70
     8
 71
     3
 72
    23
 73
    19
 74
     0
 42
0.00000001
 43
0.00000001
 40
0.0
 40
0.0
 40
0.0
 40
0.0
 40
0.0335894183173928
 40
0.0980090686472835
 40
0.162613637727591
 40
0.2273772989805974
 40
0.2922707044179372
 40
0.3572397387519302
 40
0.4222220655242685
 40
0.4871348730787625
 40
0.5519085973445803
 40
0.6164811775628594
 40
0.6808078259985142
 40
0.7448964574291739
 40
0.8088825689858116
 40
0.8730223831884437
 40
0.9380494480027809
 40
1.0
 40
1.0
 40
1.0
 40
1.0
 10
663.4444563958963
 20
-652.1297264907954
 30
0.0
 10
663.4387295851022
 20
-652.4114573035758
 30
0.0
 10
663.4220195787857
 20
-653.2335071023828
 30
0.0
 10
663.2334146068159
 20
-654.6946168699646
 30
0.0
 10
662.8087917239782
 20
-656.5047018105598
 30
0.0
 10
662.1778838908731
 20
-658.3524898700664
 30
0.0
 10
661.3579431379475
 20
-660.1885657501313
 30
0.0
 10
660.3672913004474
 20
-661.9673807858354
 30
0.0
 10
659.2307806515751
 20
-663.6437523229333
 30
0.0
 10
657.9775760543263
 20
-665.1755733939124
 30
0.0
 10
656.6408454790006
 20
-666.5248552502236
 30
0.0
 10
655.2567746984246
 20
-667.6591449511702
 30
0.0
 10
653.8635949036113
 20
-668.552979476731
 30
0.0
 10
652.5005997441875
 20
-669.1886137883563
 30
0.0
 10
651.2049528401761
 20
-669.5599732467286
 30
0.0
 10
650.0130430039303
 20
-669.6630193623035
 30
0.0
 10
648.958166954353
 20
-669.53632115944
 30
0.0
 10
648.3778275490599
 20
-669.2561585544116
 30
0.0
 10
648.0946883044716
 20
-669.1194712510404
 30
0.0
  0
SPLINE
  5
203
330
1F
100
AcDbEntity
  8
0
  6
Continuous
 62
     7
370
    25
100
AcDbSpline
210
0.0
220
0.0
230
1.0
 70
     8
 71
     3
 72
    13
 73
     9
 74
     0
 42
0.00000001
 43
0.00000001
 40
0.0
 40
0.0
 40
0.0
 40
0.0
 40
0.0884811926552722
 40
0.3131877944237244
 40
0.5300342937928906
 40
0.7392297751212938
 40
0.9449828409042048
 40
1.0
 40
1.0
 40
1.0
 40
1.0
 10
740.8645374669201
 20
-474.2133025627919
 30
0.0
 10
740.9863463067508
 20
-474.284194945597
 30
0.0
 10
741.4175005525633
 20
-474.5351254354097
 30
0.0
 10
741.9923921751946
 20
-475.2423637200363
 30
0.0
 10
742.5711551161152
 20
-476.330159475632
 30
0.0
 10
742.9379353420346
 20
-477.6504486202233
 30
0.0
 10
743.0656061750109
 20
-478.7806741370528
 30
0.0
 10
743.0730697357764
 20
-479.4542590339706
 30
0.0
 10
743.0746443937353
 20
-479.5963716062764
 30
0.0
  0
SPLINE
  5
204
330
1F
100
AcDbEntity
  8
0
  6
Continuous
 62
     7
370
    25
100
AcDbSpline
210
0.0
220
0.0
230
1.0
 70
     8
 71
     3
 72
    23
 73
    19
 74
     0
 42
0.00000001
 43
0.00000001
 40
0.0
 40
0.0
 40
0.0
 40
0.0
 40
0.0335894183173931
 40
0.0980090686472629
 40
0.1626136377275714
 40
0.2273772989805814
 40
0.2922707044179175
 40
0.3572397387519159
 40
0.4222220655242534
 40
0.4871348730787503
 40
0.5519085973445654
 40
0.6164811775628498
 40
0.6808078259985061
 40
0.744896457429166
 40
0.8088825689857977
 40
0.8730223831884351
 40
0.9380494480027713
 40
0.9999999999999999
 40
0.9999999999999999
 40
0.9999999999999999
 40
0.9999999999999999
 10
743.0746443937353
 20
-479.5963716062764
 30
0.0
 10
743.0689175829411
 20
-479.8781024190569
 30
0.0
 10
743.0522075766246
 20
-480.7001522178637
 30
0.0
 10
742.863602604655
 20
-482.1612619854453
 30
0.0
 10
742.4389797218173
 20
-483.9713469260404
 30
0.0
 10
741.8080718887122
 20
-485.819134985547
 30
0.0
 10
740.9881311357866
 20
-487.6552108656118
 30
0.0
 10
739.9974792982866
 20
-489.434025901316
 30
0.0
 10
738.8609686494143
 20
-491.110397438414
 30
0.0
 10
737.6077640521654
 20
-492.6422185093932
 30
0.0
 10
736.27103347684
 20
-493.9915003657044
 30
0.0
 10
734.8869626962637
 20
-495.1257900666509
 30
0.0
 10
733.4937829014505
 20
-496.0196245922119
 30
0.0
 10
732.1307877420267
 20
-496.6552589038372
 30
0.0
 10
730.8351408380154
 20
-497.0266183622096
 30
0.0
 10
729.6432310017695
 20
-497.1296644777846
 30
0.0
 10
728.588354952192
 20
-497.0029662749212
 30
0.0
 10
728.0080155468988
 20
-496.7228036698929
 30
0.0
 10
727.7248763023106
 20
-496.5861163665215
 30
0.0
  0
SPLINE
  5
205
330
1F
100
AcDbEntity
  8
0
  6
Continuous
 62
     7
370
    25
100
AcDbSpline
210
0.0
220
0.0
230
1.0
 70
     8
 71
     3
 72
    13
 73
     9
 74
     0
 42
0.00000001
 43
0.00000001
 40
0.0
 40
0.0
 40
0.0
 40
0.0
 40
0.0884811926551997
 40
0.3131877944236085
 40
0.5300342937927877
 40
0.7392297751211373
 40
0.9449828409040602
 40
1.0
 40
1.0
 40
1.0
 40
1.0
 10
692.369853304436
 20
-558.2085591826938
 30
0.0
 10
692.4916621442666
 20
-558.2794515654989
 30
0.0
 10
692.9228163900791
 20
-558.5303820553113
 30
0.0
 10
693.4977080127104
 20
-559.237620339938
 30
0.0
 10
694.076470953631
 20
-560.3254160955331
 30
0.0
 10
694.4432511795507
 20
-561.6457052401245
 30
0.0
 10
694.5709220125269
 20
-562.7759307569539
 30
0.0
 10
694.5783855732924
 20
-563.4495156538724
 30
0.0
 10
694.5799602312514
 20
-563.5916282261784
 30
0.0
  0
SPLINE
  5
206
330
1F
100
AcDbEntity
  8
0
  6
Continuous
 62
     7
370
    25
100
AcDbSpline
210
0.0
220
0.0
230
1.0
 70
     8
 71
     3
 72
    23
 73
    19
 74
     0
 42
0.00000001
 43
0.00000001
 40
0.0
 40
0.0
 40
0.0
 40
0.0
 40
0.0335894183173929
 40
0.0980090686472624
 40
0.1626136377275705
 40
0.2273772989805803
 40
0.292270704417916
 40
0.3572397387519141
 40
0.4222220655242512
 40
0.4871348730787478
 40
0.5519085973445642
 40
0.616481177562852
 40
0.6808078259985
 40
0.7448964574291612
 40
0.8088825689857946
 40
0.8730223831884296
 40
0.9380494480027655
 40
1.0
 40
1.0
 40
1.0
 40
1.0
 10
694.5799602312514
 20
-563.5916282261784
 30
0.0
 10
694.5742334204572
 20
-563.8733590389589
 30
0.0
 10
694.5575234141409
 20
-564.6954088377656
 30
0.0
 10
694.3689184421711
 20
-566.1565186053473
 30
0.0
 10
693.9442955593335
 20
-567.9666035459425
 30
0.0
 10
693.3133877262283
 20
-569.8143916054489
 30
0.0
 10
692.4934469733028
 20
-571.6504674855139
 30
0.0
 10
691.5027951358027
 20
-573.429282521218
 30
0.0
 10
690.3662844869305
 20
-575.105654058316
 30
0.0
 10
689.1130798896817
 20
-576.6374751292952
 30
0.0
 10
687.776349314356
 20
-577.9867569856065
 30
0.0
 10
686.39227853378
 20
-579.121046686553
 30
0.0
 10
684.9990987389666
 20
-580.014881212114
 30
0.0
 10
683.6361035795428
 20
-580.6505155237392
 30
0.0
 10
682.3404566755314
 20
-581.0218749821116
 30
0.0
 10
681.1485468392857
 20
-581.1249210976866
 30
0.0
 10
680.0936707897082
 20
-580.9982228948231
 30
0.0
 10
679.5133313844151
 20
-580.7180602897947
 30
0.0
 10
679.2301921398267
 20
-580.5813729864234
 30
0.0
  0
LWPOLYLINE
  5
207
330
1F
100
AcDbEntity
  8
0
  6
Continuous
 62
     7
370
    25
100
AcDbPolyline
 90
      196
 70
   128
 43
0.0
 10
1101.314485428
 20
-477.334364957
 10
1101.190427465
 20
-468.5146936019
 10
1100.8183823646
 20
-459.8474125127
 10
1100.1987363591
 20
-451.3415194787
 10
1099.3321327234
 20
-443.0058447471
 10
1098.2194711071
 20
-434.8490418558
 10
1096.8619066009
 20
-426.8795786498
 10
1095.2608485371
 20
-419.1057284908
 10
1093.4179590266
 20
-411.5355616681
 10
1091.3351512337
 20
-404.1769370207
 10
1089.0145873895
 20
-397.0374937787
 10
1086.4586765477
 20
-390.1246436327
 10
1083.6700720833
 20
-383.4455630396
 10
1080.6516689382
 20
-377.0071857725
 10
1077.4066006159
 20
-370.8161957225
 10
1073.9382359284
 20
-364.8790199596
 10
1070.2501754993
 20
-359.2018220612
 10
1066.3462480251
 20
-353.7904957131
 10
1062.2305063013
 20
-348.6506585908
 10
1057.9072230146
 20
-343.7876465283
 10
1053.3808863075
 20
-339.2065079782
 10
1048.6561951188
 20
-334.9119987709
 10
1043.7380543058
 20
-330.9085771777
 10
1038.6315695521
 20
-327.2003992819
 10
1033.3420420672
 20
-323.791314665
 10
1027.8749630836
 20
-320.6848624097
 10
1022.2360081554
 20
-317.8842674262
 10
1016.4310312673
 20
-315.3924371042
 10
1010.4660587564
 20
-313.2119582947
 10
1004.3472830568
 20
-311.3450946242
 10
998.0810562705
 20
-309.7937841454
 10
991.6738835735
 20
-308.5596373247
 10
985.1324164625
 20
-307.6439353704
 10
978.4634458492
 20
-307.0476289028
 10
971.6738950114
 20
-306.7713369673
 10
964.7708124047
 20
-306.8153463915
 10
957.7613643463
 20
-307.179611488
 10
950.6528275743
 20
-307.863754101
 10
943.4525816946
 20
-308.8670639997
 10
936.1681015188
 20
-310.188499615
 10
928.8069493054
 20
-311.8266891214
 10
921.3767669082
 20
-313.7799318603
 10
913.8852678439
 20
-316.0462001063
 10
906.3402292837
 20
-318.6231411719
 10
898.7494839803
 20
-321.5080798499
 10
891.1209121357
 20
-324.6980211905
 10
883.462433221
 20
-328.189653611
 10
875.781997755
 20
-331.9793523329
 10
868.08757905
 20
-336.0631831454
 10
860.3871649349
 20
-340.4369064896
 10
852.6887494628
 20
-345.0959818595
 10
845.0003246117
 20
-350.0355725159
 10
837.3298719882
 20
-355.2505505073
 10
829.6853545411
 20
-360.7355019939
 10
822.0747082952
 20
-366.4847328671
 10
814.5058341125
 20
-372.4922746614
 10
806.9865894901
 20
-378.7518907504
 10
799.5247804029
 20
-385.2570828208
 10
792.1281532001
 20
-392.0010976189
 10
784.8043865634
 20
-398.9769339614
 10
777.5610835358
 20
-406.1773500034
 10
770.4057636281
 20
-413.5948707562
 10
763.3458550131
 20
-421.2217958479
 10
756.3886868138
 20
-429.0502075169
 10
749.5414814953
 20
-437.0719788317
 10
742.8113473664
 20
-445.278782128
 10
736.2052712006
 20
-453.6620976535
 10
729.7301109824
 20
-462.2132224128
 10
723.3925887887
 20
-470.9232792025
 10
717.1992838094
 20
-479.7832258262
 10
711.156625518
 20
-488.7838644822
 10
705.2708869966
 20
-497.9158513118
 10
699.5481784238
 20
-507.1697060993
 10
693.9944407314
 20
-516.5358221139
 10
688.6154394371
 20
-526.0044760829
 10
683.4167586589
 20
-535.5658382853
 10
678.403795318
 20
-545.2099827569
 10
673.5817535366
 20
-554.9268975943
 10
668.9556392346
 20
-564.7064953489
 10
664.5302549333
 20
-574.538623499
 10
660.3101947696
 20
-584.4130749891
 10
656.2998397267
 20
-594.3195988268
 10
652.5033530859
 20
-604.2479107239
 10
648.9246761047
 20
-614.1877037737
 10
645.5675239253
 20
-624.1286591504
 10
642.4353817178
 20
-634.0604568214
 10
639.5315010618
 20
-643.9727862613
 10
636.8588965713
 20
-653.8553571551
 10
634.420342765
 20
-663.6979100812
 10
632.2183711855
 20
-673.490227162
 10
630.255267772
 20
-683.2221426712
 10
628.5330704867
 20
-692.8835535876
 10
627.053567199
 20
-702.464430083
 10
625.8182938302
 20
-711.9548259347
 10
624.8285327579
 20
-721.3448888508
 10
624.0853114857
 20
-730.6248706985
 10
623.589401576
 20
-739.7851376236
 10
623.3413178493
 20
-748.816180052
 10
623.3413178493
 20
-757.7086225617
 10
623.589401576
 20
-766.4532336161
 10
624.0853114857
 20
-775.0409351468
 10
624.8285327579
 20
-783.4628119789
 10
625.8182938302
 20
-791.7101210852
 10
627.053567199
 20
-799.774300663
 10
628.5330704867
 20
-807.6469790225
 10
630.255267772
 20
-815.3199832777
 10
632.2183711855
 20
-822.7853478306
 10
634.420342765
 20
-830.035322641
 10
636.8588965713
 20
-837.0623812718
 10
639.5315010618
 20
-843.8592287024
 10
642.4353817178
 20
-850.4188089022
 10
645.5675239253
 20
-856.7343121554
 10
648.9246761047
 20
-862.7991821305
 10
652.5033530859
 20
-868.6071226868
 10
656.2998397267
 20
-874.1521044102
 10
660.3101947697
 20
-879.4283708731
 10
664.5302549333
 20
-884.4304446097
 10
668.9556392346
 20
-889.153132803
 10
673.5817535366
 20
-893.5915326752
 10
678.403795318
 20
-897.7410365774
 10
683.4167586589
 20
-901.5973367734
 10
688.6154394371
 20
-905.1564299111
 10
693.9944407314
 20
-908.4146211791
 10
699.5481784238
 20
-911.3685281418
 10
705.2708869966
 20
-914.0150842515
 10
711.156625518
 20
-916.3515420311
 10
717.1992838094
 20
-918.3754759272
 10
723.3925887887
 20
-920.0847848274
 10
729.7301109824
 20
-921.4776942421
 10
736.2052712006
 20
-922.552758146
 10
742.8113473664
 20
-923.3088604802
 10
749.5414814953
 20
-923.7452163098
 10
756.3886868138
 20
-923.8613726397
 10
763.3458550131
 20
-923.657208884
 10
770.4057636281
 20
-923.1329369918
 10
777.5610835358
 20
-922.2891012272
 10
784.8043865634
 20
-921.1265776036
 10
792.1281532001
 20
-919.6465729751
 10
799.5247804029
 20
-917.8506237831
 10
806.9865894901
 20
-915.7405944616
 10
814.5058341125
 20
-913.3186755011
 10
822.0747082952
 20
-910.5873811756
 10
829.6853545411
 20
-907.5495469312
 10
837.3298719882
 20
-904.2083264437
 10
845.0003246117
 20
-900.5671883437
 10
852.6887494628
 20
-896.6299126164
 10
860.3871649349
 20
-892.4005866772
 10
868.08757905
 20
-887.8836011282
 10
875.781997755
 20
-883.0836452007
 10
883.462433221
 20
-878.0057018865
 10
891.1209121357
 20
-872.6550427655
 10
898.7494839803
 20
-867.0372225329
 10
906.3402292837
 20
-861.1580732324
 10
913.8852678439
 20
-855.023698202
 10
921.3767669082
 20
-848.6404657382
 10
928.8069493054
 20
-842.0150024842
 10
936.1681015188
 20
-835.1541865513
 10
943.4525816946
 20
-828.0651403779
 10
950.6528275743
 20
-820.7552233358
 10
957.7613643463
 20
-813.2320240901
 10
964.7708124047
 20
-805.5033527212
 10
971.6738950114
 20
-797.5772326169
 10
978.4634458492
 20
-789.4618921428
 10
985.1324164625
 20
-781.1657561006
 10
991.6738835735
 20
-772.6974369818
 10
998.0810562705
 20
-764.0657260268
 10
1004.3472830568
 20
-755.2795840983
 10
1010.4660587564
 20
-746.348132379
 10
1016.4310312673
 20
-737.2806429025
 10
1022.2360081554
 20
-728.0865289276
 10
1027.8749630836
 20
-718.7753351661
 10
1033.3420420672
 20
-709.3567278743
 10
1038.6315695521
 20
-699.8404848179
 10
1043.7380543058
 20
-690.2364851215
 10
1048.6561951188
 20
-680.5546990129
 10
1053.3808863075
 20
-670.8051774725
 10
1057.9072230146
 20
-660.9980417988
 10
1062.2305063013
 20
-651.1434731018
 10
1066.3462480251
 20
-641.251701733
 10
1070.2501754993
 20
-631.3329966654
 10
1073.9382359284
 20
-621.3976548326
 10
1077.4066006159
 20
-611.4559904396
 10
1080.6516689382
 20
-601.5183242548
 10
1083.6700720833
 20
-591.5949728962
 10
1086.4586765477
 20
-581.6962381207
 10
1089.0145873895
 20
-571.8323961304
 10
1091.3351512337
 20
-562.0136869037
 10
1093.4179590266
 20
-552.2503035653
 10
1095.260848537
 20
-542.5523818044
 10
1096.8619066009
 20
-532.9299893523
 10
1098.2194711071
 20
-523.3931155307
 10
1099.3321327234
 20
-513.9516608817
 10
1100.1987363591
 20
-504.6154268898
 10
1100.8183823646
 20
-495.3941058062
 10
1101.190427465
 20
-486.2972705874
 10
1101.314485428
 20
-477.334364957
  0
ARC
  5
208
330
1F
100
AcDbEntity
  8
0
  6
Continuous
 62
     7
370
    25
100
AcDbCircle
 10
752.389963756
 20
-807.3168861287
 30
0.0
 40
117.6718921008349
100
AcDbArc
 50
213.926023795
 51
265.4260202804
  0
ARC
  5
209
330
1F
100
AcDbEntity
  8
0
  6
Continuous
 62
     7
370
    25
100
AcDbCircle
 10
973.7098090892
 20
-423.9904899319
 30
0.0
 40
117.5388982384792
100
AcDbArc
 50
34.4534956319
 51
85.2295226197
  0
ARC
  5
20A
330
1F
100
AcDbEntity
  8
0
  6
Continuous
 62
     7
370
    25
100
AcDbCircle
 10
1002.4751085299
 20
-443.0747923118
 30
0.0
 40
119.7642837098825
100
AcDbArc
 50
34.2861739952
 51
59.6934509504
  0
ARC
  5
20B
330
1F
100
AcDbEntity
  8
0
  6
Continuous
 62
     7
370
    25
100
AcDbCircle
 10
783.4018259441
 20
-822.3387356485
 30
0.0
 40
120.2510034563559
100
AcDbArc
 50
240.363851724
 51
265.6848992357
  0
LWPOLYLINE
  5
20C
330
1F
100
AcDbEntity
  8
0
  6
Continuous
 62
     7
370
    25
100
AcDbPolyline
 90
       40
 70
   128
 43
0.0
 10
743.3675376125
 20
-479.1881675504
 10
743.2393417531
 20
-481.0959264499
 10
742.8580743802
 20
-483.1022871848
 10
742.2336101185
 20
-485.1552860659
 10
741.3821222644
 20
-487.2017515007
 10
740.325663906
 20
-489.1886811093
 10
739.0915967599
 20
-491.0646144586
 10
737.7118825169
 20
-492.7809658601
 10
736.2222550513
 20
-494.2932827142
 10
734.6612949318
 20
-495.5623968087
 10
733.0694302057
 20
-496.5554387552
 10
731.4878893332
 20
-497.2466892889
 10
729.9576333922
 20
-497.618245384
 10
728.5182952076
 20
-497.660483933
 10
727.2071528825
 20
-497.3723109795
 10
726.0581643144
 20
-496.7611900516
 10
725.1010877036
 20
-495.8429488605
 10
724.3607108316
 20
-494.6413693706
 10
723.8562090706
 20
-493.1875718595
 10
723.600648751
 20
-491.5192089192
 10
723.600648751
 20
-489.6794902734
 10
723.8562090706
 20
-487.7160636687
 10
724.3607108316
 20
-485.6797808229
 10
725.1010877036
 20
-483.6233803919
 10
726.0581643144
 20
-481.6001220669
 10
727.2071528825
 20
-479.6624071757
 10
728.5182952076
 20
-477.860421516
 10
729.9576333922
 20
-476.24083557
 10
731.4878893332
 20
-474.845595763
 10
733.0694302057
 20
-473.710838073
 10
734.6612949318
 20
-472.8659521281
 10
736.2222550513
 20
-472.3328200305
 10
737.7118825169
 20
-472.1252496216
 10
739.0915967599
 20
-472.2486168659
 10
740.325663906
 20
-472.6997266165
 10
741.3821222644
 20
-473.4668953678
 10
742.2336101185
 20
-474.5302538522
 10
742.8580743802
 20
-475.8622616436
 10
743.2393417531
 20
-477.4284204397
 10
743.3675376125
 20
-479.1881675504
  0
LWPOLYLINE
  5
20D
330
1F
100
AcDbEntity
  8
0
  6
Continuous
 62
     7
370
    25
100
AcDbPolyline
 90
       40
 70
   128
 43
0.0
 10
663.7373496147
 20
-651.7215224349
 10
663.6091537553
 20
-653.6292813344
 10
663.2278863823
 20
-655.6356420693
 10
662.6034221206
 20
-657.6886409504
 10
661.7519342665
 20
-659.7351063852
 10
660.6954759081
 20
-661.7220359938
 10
659.461408762
 20
-663.5979693431
 10
658.0816945191
 20
-665.3143207446
 10
656.5920670534
 20
-666.8266375987
 10
655.031106934
 20
-668.0957516932
 10
653.4392422079
 20
-669.0887936397
 10
651.8577013354
 20
-669.7800441734
 10
650.3274453943
 20
-670.1516002686
 10
648.8881072098
 20
-670.1938388175
 10
647.5769648847
 20
-669.905665864
 10
646.4279763166
 20
-669.2945449362
 10
645.4708997058
 20
-668.376303745
 10
644.7305228338
 20
-667.1747242551
 10
644.2260210727
 20
-665.720926744
 10
643.9704607532
 20
-664.0525638037
 10
643.9704607532
 20
-662.2128451579
 10
644.2260210727
 20
-660.2494185532
 10
644.7305228338
 20
-658.2131357074
 10
645.4708997058
 20
-656.1567352765
 10
646.4279763166
 20
-654.1334769514
 10
647.5769648847
 20
-652.1957620602
 10
648.8881072098
 20
-650.3937764005
 10
650.3274453943
 20
-648.7741904546
 10
651.8577013354
 20
-647.3789506475
 10
653.4392422079
 20
-646.2441929575
 10
655.031106934
 20
-645.3993070126
 10
656.5920670534
 20
-644.8661749151
 10
658.0816945191
 20
-644.6586045061
 10
659.461408762
 20
-644.7819717504
 10
660.6954759081
 20
-645.233081501
 10
661.7519342665
 20
-646.0002502523
 10
662.6034221206
 20
-647.0636087368
 10
663.2278863823
 20
-648.3956165281
 10
663.6091537553
 20
-649.9617753242
 10
663.7373496147
 20
-651.7215224349
  0
LWPOLYLINE
  5
20E
330
1F
100
AcDbEntity
  8
0
  6
Continuous
 62
     7
370
    25
100
AcDbPolyline
 90
       40
 70
   128
 43
0.0
 10
663.7373496147
 20
-808.1630146684
 10
663.6091537553
 20
-810.0707735679
 10
663.2278863823
 20
-812.0771343028
 10
662.6034221206
 20
-814.130133184
 10
661.7519342665
 20
-816.1765986188
 10
660.6954759081
 20
-818.1635282274
 10
659.461408762
 20
-820.0394615766
 10
658.0816945191
 20
-821.7558129782
 10
656.5920670534
 20
-823.2681298323
 10
655.031106934
 20
-824.5372439268
 10
653.4392422079
 20
-825.5302858733
 10
651.8577013354
 20
-826.2215364069
 10
650.3274453943
 20
-826.5930925021
 10
648.8881072098
 20
-826.635331051
 10
647.5769648847
 20
-826.3471580975
 10
646.4279763166
 20
-825.7360371697
 10
645.4708997058
 20
-824.8177959786
 10
644.7305228338
 20
-823.6162164886
 10
644.2260210727
 20
-822.1624189776
 10
643.9704607532
 20
-820.4940560372
 10
643.9704607532
 20
-818.6543373915
 10
644.2260210727
 20
-816.6909107868
 10
644.7305228338
 20
-814.6546279409
 10
645.4708997058
 20
-812.59822751
 10
646.4279763166
 20
-810.574969185
 10
647.5769648847
 20
-808.6372542937
 10
648.8881072098
 20
-806.8352686341
 10
650.3274453943
 20
-805.2156826881
 10
651.8577013354
 20
-803.820442881
 10
653.4392422079
 20
-802.685685191
 10
655.031106934
 20
-801.8407992462
 10
656.5920670534
 20
-801.3076671486
 10
658.0816945191
 20
-801.1000967397
 10
659.461408762
 20
-801.2234639839
 10
660.6954759081
 20
-801.6745737345
 10
661.7519342665
 20
-802.4417424859
 10
662.6034221206
 20
-803.5051009703
 10
663.2278863823
 20
-804.8371087616
 10
663.6091537553
 20
-806.4032675577
 10
663.7373496147
 20
-808.1630146684
  0
LWPOLYLINE
  5
20F
330
1F
100
AcDbEntity
  8
0
  6
Continuous
 62
     7
370
    25
100
AcDbPolyline
 90
       40
 70
   128
 43
0.0
 10
743.3675376125
 20
-888.7573114686
 10
743.2393417531
 20
-890.6650703681
 10
742.8580743802
 20
-892.671431103
 10
742.2336101185
 20
-894.7244299841
 10
741.3821222643
 20
-896.7708954189
 10
740.3256639059
 20
-898.7578250275
 10
739.0915967598
 20
-900.6337583768
 10
737.7118825169
 20
-902.3501097783
 10
736.2222550512
 20
-903.8624266324
 10
734.6612949318
 20
-905.1315407269
 10
733.0694302057
 20
-906.1245826734
 10
731.4878893332
 20
-906.8158332071
 10
729.9576333921
 20
-907.1873893022
 10
728.5182952076
 20
-907.2296278512
 10
727.2071528825
 20
-906.9414548977
 10
726.0581643144
 20
-906.3303339698
 10
725.1010877036
 20
-905.4120927787
 10
724.3607108316
 20
-904.2105132888
 10
723.8562090706
 20
-902.7567157777
 10
723.600648751
 20
-901.0883528374
 10
723.600648751
 20
-899.2486341916
 10
723.8562090706
 20
-897.2852075869
 10
724.3607108316
 20
-895.248924741
 10
725.1010877036
 20
-893.1925243101
 10
726.0581643144
 20
-891.1692659851
 10
727.2071528825
 20
-889.2315510939
 10
728.5182952076
 20
-887.4295654342
 10
729.9576333921
 20
-885.8099794882
 10
731.4878893332
 20
-884.4147396812
 10
733.0694302057
 20
-883.2799819911
 10
734.6612949318
 20
-882.4350960463
 10
736.2222550512
 20
-881.9019639487
 10
737.7118825169
 20
-881.6943935398
 10
739.0915967598
 20
-881.817760784
 10
740.3256639059
 20
-882.2688705346
 10
741.3821222643
 20
-883.036039286
 10
742.2336101185
 20
-884.0993977704
 10
742.8580743802
 20
-885.4314055618
 10
743.2393417531
 20
-886.9975643578
 10
743.3675376125
 20
-888.7573114686
  0
LWPOLYLINE
  5
210
330
1F
100
AcDbEntity
  8
0
  6
Continuous
 62
     7
370
    25
100
AcDbPolyline
 90
       40
 70
   128
 43
0.0
 10
872.2118883235
 20
-862.720130757
 10
872.0836924641
 20
-864.6278896565
 10
871.7024250912
 20
-866.6342503914
 10
871.0779608295
 20
-868.6872492725
 10
870.2264729754
 20
-870.7337147073
 10
869.170014617
 20
-872.7206443159
 10
867.9359474709
 20
-874.5965776652
 10
866.5562332279
 20
-876.3129290667
 10
865.0666057623
 20
-877.8252459208
 10
863.5056456428
 20
-879.0943600153
 10
861.9137809167
 20
-880.0874019618
 10
860.3322400442
 20
-880.7786524955
 10
858.8019841032
 20
-881.1502085907
 10
857.3626459186
 20
-881.1924471396
 10
856.0515035935
 20
-880.9042741861
 10
854.9025150254
 20
-880.2931532583
 10
853.9454384146
 20
-879.3749120671
 10
853.2050615426
 20
-878.1733325772
 10
852.7005597816
 20
-876.7195350661
 10
852.444999462
 20
-875.0511721258
 10
852.444999462
 20
-873.21145348
 10
852.7005597816
 20
-871.2480268753
 10
853.2050615426
 20
-869.2117440295
 10
853.9454384146
 20
-867.1553435986
 10
854.9025150254
 20
-865.1320852735
 10
856.0515035935
 20
-863.1943703823
 10
857.3626459186
 20
-861.3923847226
 10
858.8019841032
 20
-859.7727987767
 10
860.3322400442
 20
-858.3775589696
 10
861.9137809167
 20
-857.2428012796
 10
863.5056456428
 20
-856.3979153347
 10
865.0666057623
 20
-855.8647832372
 10
866.5562332279
 20
-855.6572128282
 10
867.9359474709
 20
-855.7805800725
 10
869.170014617
 20
-856.2316898231
 10
870.2264729754
 20
-856.9988585744
 10
871.0779608295
 20
-858.0622170589
 10
871.7024250912
 20
-859.3942248502
 10
872.0836924641
 20
-860.9603836463
 10
872.2118883235
 20
-862.720130757
  0
LWPOLYLINE
  5
211
330
1F
100
AcDbEntity
  8
0
  6
Continuous
 62
     7
370
    25
100
AcDbPolyline
 90
       40
 70
   128
 43
0.0
 10
1001.0562390346
 20
-739.9967905943
 10
1000.9280431751
 20
-741.9045494938
 10
1000.5467758022
 20
-743.9109102287
 10
999.9223115405
 20
-745.9639091099
 10
999.0708236864
 20
-748.0103745447
 10
998.014365328
 20
-749.9973041533
 10
996.7802981819
 20
-751.8732375026
 10
995.4005839389
 20
-753.5895889041
 10
993.9109564733
 20
-755.1019057582
 10
992.3499963538
 20
-756.3710198527
 10
990.7581316277
 20
-757.3640617992
 10
989.1765907552
 20
-758.0553123329
 10
987.6463348142
 20
-758.426868428
 10
986.2069966297
 20
-758.469106977
 10
984.8958543046
 20
-758.1809340234
 10
983.7468657365
 20
-757.5698130956
 10
982.7897891257
 20
-756.6515719045
 10
982.0494122537
 20
-755.4499924146
 10
981.5449104926
 20
-753.9961949035
 10
981.2893501731
 20
-752.3278319631
 10
981.2893501731
 20
-750.4881133174
 10
981.5449104926
 20
-748.5246867127
 10
982.0494122537
 20
-746.4884038668
 10
982.7897891257
 20
-744.4320034359
 10
983.7468657365
 20
-742.4087451109
 10
984.8958543046
 20
-740.4710302196
 10
986.2069966297
 20
-738.66904456
 10
987.6463348142
 20
-737.049458614
 10
989.1765907552
 20
-735.6542188069
 10
990.7581316277
 20
-734.5194611169
 10
992.3499963538
 20
-733.6745751721
 10
993.9109564733
 20
-733.1414430745
 10
995.4005839389
 20
-732.9338726656
 10
996.7802981819
 20
-733.0572399098
 10
998.014365328
 20
-733.5083496604
 10
999.0708236864
 20
-734.2755184118
 10
999.9223115405
 20
-735.3388768962
 10
1000.5467758022
 20
-736.6708846875
 10
1000.9280431751
 20
-738.2370434836
 10
1001.0562390346
 20
-739.9967905943
  0
LWPOLYLINE
  5
212
330
1F
100
AcDbEntity
  8
0
  6
Continuous
 62
     7
370
    25
100
AcDbPolyline
 90
       40
 70
   128
 43
0.0
 10
1080.6864270324
 20
-567.4634357098
 10
1080.558231173
 20
-569.3711946093
 10
1080.1769638001
 20
-571.3775553442
 10
1079.5524995384
 20
-573.4305542254
 10
1078.7010116842
 20
-575.4770196602
 10
1077.6445533258
 20
-577.4639492688
 10
1076.4104861797
 20
-579.339882618
 10
1075.0307719368
 20
-581.0562340196
 10
1073.5411444711
 20
-582.5685508737
 10
1071.9801843517
 20
-583.8376649682
 10
1070.3883196256
 20
-584.8307069146
 10
1068.8067787531
 20
-585.5219574483
 10
1067.276522812
 20
-585.8935135435
 10
1065.8371846275
 20
-585.9357520924
 10
1064.5260423024
 20
-585.6475791389
 10
1063.3770537343
 20
-585.0364582111
 10
1062.4199771235
 20
-584.11821702
 10
1061.6796002515
 20
-582.91663753
 10
1061.1750984905
 20
-581.462840019
 10
1060.9195381709
 20
-579.7944770786
 10
1060.9195381709
 20
-577.9547584328
 10
1061.1750984905
 20
-575.9913318282
 10
1061.6796002515
 20
-573.9550489823
 10
1062.4199771235
 20
-571.8986485514
 10
1063.3770537343
 20
-569.8753902264
 10
1064.5260423024
 20
-567.9376753351
 10
1065.8371846275
 20
-566.1356896755
 10
1067.276522812
 20
-564.5161037295
 10
1068.8067787531
 20
-563.1208639224
 10
1070.3883196256
 20
-561.9861062324
 10
1071.9801843517
 20
-561.1412202875
 10
1073.5411444711
 20
-560.60808819
 10
1075.0307719368
 20
-560.4005177811
 10
1076.4104861797
 20
-560.5238850253
 10
1077.6445533258
 20
-560.9749947759
 10
1078.7010116842
 20
-561.7421635273
 10
1079.5524995384
 20
-562.8055220117
 10
1080.1769638001
 20
-564.137529803
 10
1080.558231173
 20
-565.7036885991
 10
1080.6864270324
 20
-567.4634357098
  0
LWPOLYLINE
  5
213
330
1F
100
AcDbEntity
  8
0
  6
Continuous
 62
     7
370
    25
100
AcDbPolyline
 90
       40
 70
   128
 43
0.0
 10
1049.5509231971
 20
-358.4321327591
 10
1049.4227273376
 20
-360.3398916586
 10
1049.0414599647
 20
-362.3462523935
 10
1048.416995703
 20
-364.3992512747
 10
1047.5655078489
 20
-366.4457167095
 10
1046.5090494905
 20
-368.4326463181
 10
1045.2749823444
 20
-370.3085796673
 10
1043.8952681014
 20
-372.0249310689
 10
1042.4056406358
 20
-373.537247923
 10
1040.8446805163
 20
-374.8063620175
 10
1039.2528157902
 20
-375.799403964
 10
1037.6712749177
 20
-376.4906544976
 10
1036.1410189767
 20
-376.8622105928
 10
1034.7016807922
 20
-376.9044491417
 10
1033.3905384671
 20
-376.6162761882
 10
1032.241549899
 20
-376.0051552604
 10
1031.2844732882
 20
-375.0869140693
 10
1030.5440964162
 20
-373.8853345793
 10
1030.0395946551
 20
-372.4315370683
 10
1029.7840343356
 20
-370.7631741279
 10
1029.7840343356
 20
-368.9234554821
 10
1030.0395946551
 20
-366.9600288775
 10
1030.5440964162
 20
-364.9237460316
 10
1031.2844732882
 20
-362.8673456007
 10
1032.241549899
 20
-360.8440872757
 10
1033.3905384671
 20
-358.9063723844
 10
1034.7016807922
 20
-357.1043867248
 10
1036.1410189767
 20
-355.4848007788
 10
1037.6712749177
 20
-354.0895609717
 10
1039.2528157902
 20
-352.9548032817
 10
1040.8446805163
 20
-352.1099173368
 10
1042.4056406358
 20
-351.5767852393
 10
1043.8952681014
 20
-351.3692148304
 10
1045.2749823444
 20
-351.4925820746
 10
1046.5090494905
 20
-351.9436918252
 10
1047.5655078489
 20
-352.7108605766
 10
1048.416995703
 20
-353.774219061
 10
1049.0414599647
 20
-355.1062268523
 10
1049.4227273376
 20
-356.6723856484
 10
1049.5509231971
 20
-358.4321327591
  0
LWPOLYLINE
  5
214
330
1F
100
AcDbEntity
  8
0
  6
Continuous
 62
     7
370
    25
100
AcDbPolyline
 90
       40
 70
   128
 43
0.0
 10
939.9493721132
 20
-329.7497594439
 10
939.8211762537
 20
-331.6575183434
 10
939.4399088808
 20
-333.6638790783
 10
938.8154446191
 20
-335.7168779594
 10
937.963956765
 20
-337.7633433942
 10
936.9074984066
 20
-339.7502730028
 10
935.6734312605
 20
-341.6262063521
 10
934.2937170175
 20
-343.3425577536
 10
932.8040895519
 20
-344.8548746077
 10
931.2431294324
 20
-346.1239887022
 10
929.6512647063
 20
-347.1170306487
 10
928.0697238338
 20
-347.8082811824
 10
926.5394678928
 20
-348.1798372776
 10
925.1001297082
 20
-348.2220758265
 10
923.7889873832
 20
-347.933902873
 10
922.639998815
 20
-347.3227819451
 10
921.6829222042
 20
-346.404540754
 10
920.9425453323
 20
-345.2029612641
 10
920.4380435712
 20
-343.749163753
 10
920.1824832516
 20
-342.0808008127
 10
920.1824832516
 20
-340.2410821669
 10
920.4380435712
 20
-338.2776555622
 10
920.9425453323
 20
-336.2413727164
 10
921.6829222042
 20
-334.1849722854
 10
922.639998815
 20
-332.1617139604
 10
923.7889873832
 20
-330.2239990692
 10
925.1001297082
 20
-328.4220134095
 10
926.5394678928
 20
-326.8024274635
 10
928.0697238338
 20
-325.4071876565
 10
929.6512647063
 20
-324.2724299665
 10
931.2431294324
 20
-323.4275440216
 10
932.8040895519
 20
-322.8944119241
 10
934.2937170175
 20
-322.6868415151
 10
935.6734312605
 20
-322.8102087594
 10
936.9074984066
 20
-323.26131851
 10
937.963956765
 20
-324.0284872613
 10
938.8154446191
 20
-325.0918457458
 10
939.4399088808
 20
-326.4238535371
 10
939.8211762537
 20
-327.9900123332
 10
939.9493721132
 20
-329.7497594439
  0
LWPOLYLINE
  5
215
330
1F
100
AcDbEntity
  8
0
  6
Continuous
 62
     7
370
    25
100
AcDbPolyline
 90
       40
 70
   128
 43
0.0
 10
872.2118883236
 20
-356.4648273877
 10
872.0836924641
 20
-358.3725862872
 10
871.7024250912
 20
-360.3789470221
 10
871.0779608295
 20
-362.4319459033
 10
870.2264729754
 20
-364.4784113381
 10
869.170014617
 20
-366.4653409467
 10
867.9359474709
 20
-368.3412742959
 10
866.5562332279
 20
-370.0576256975
 10
865.0666057623
 20
-371.5699425516
 10
863.5056456428
 20
-372.8390566461
 10
861.9137809167
 20
-373.8320985925
 10
860.3322400442
 20
-374.5233491262
 10
858.8019841032
 20
-374.8949052214
 10
857.3626459187
 20
-374.9371437703
 10
856.0515035936
 20
-374.6489708168
 10
854.9025150255
 20
-374.037849889
 10
853.9454384147
 20
-373.1196086978
 10
853.2050615427
 20
-371.9180292079
 10
852.7005597816
 20
-370.4642316969
 10
852.4449994621
 20
-368.7958687565
 10
852.4449994621
 20
-366.9561501107
 10
852.7005597816
 20
-364.9927235061
 10
853.2050615427
 20
-362.9564406602
 10
853.9454384147
 20
-360.9000402293
 10
854.9025150255
 20
-358.8767819043
 10
856.0515035936
 20
-356.939067013
 10
857.3626459187
 20
-355.1370813534
 10
858.8019841032
 20
-353.5174954074
 10
860.3322400442
 20
-352.1222556003
 10
861.9137809167
 20
-350.9874979103
 10
863.5056456428
 20
-350.1426119654
 10
865.0666057623
 20
-349.6094798679
 10
866.5562332279
 20
-349.401909459
 10
867.9359474709
 20
-349.5252767032
 10
869.170014617
 20
-349.9763864538
 10
870.2264729754
 20
-350.7435552052
 10
871.0779608295
 20
-351.8069136896
 10
871.7024250912
 20
-353.1389214809
 10
872.0836924641
 20
-354.705080277
 10
872.2118883236
 20
-356.4648273877
  0
LWPOLYLINE
  5
216
330
1F
100
AcDbEntity
  8
0
  6
Continuous
 62
     7
370
    25
100
AcDbPolyline
 90
      172
 70
   128
 43
0.0
 10
1045.8066031049
 20
-509.3783833461
 10
1045.682748824
 20
-517.2338553151
 10
1045.3113531787
 20
-525.221721875
 10
1044.6929175358
 20
-533.3311997812
 10
1043.8282767543
 20
-541.5513416195
 10
1042.7185980586
 20
-549.8710505846
 10
1041.3653794628
 20
-558.2790954604
 10
1039.7704477484
 20
-566.7641257813
 10
1037.9359559984
 20
-575.314687155
 10
1035.8643806904
 20
-583.9192367255
 10
1033.5585183537
 20
-592.5661587551
 10
1031.0214817942
 20
-601.2437803052
 10
1028.2566958919
 20
-609.9403869946
 10
1025.267892978
 20
-618.6442388128
 10
1022.059107796
 20
-627.3435859688
 10
1018.6346720551
 20
-636.0266847526
 10
1014.9992085827
 20
-644.6818133889
 10
1011.1576250836
 20
-653.2972878607
 10
1007.1151075151
 20
-661.8614776822
 10
1002.8771130859
 20
-670.3628215995
 10
998.4493628894
 20
-678.7898431978
 10
993.8378341804
 20
-687.1311663939
 10
989.048752306
 20
-695.3755307933
 10
984.0885823016
 20
-703.5118068915
 10
978.9640201637
 20
-711.529011098
 10
973.6819838104
 20
-719.4163205638
 10
968.2496037427
 20
-727.1630877917
 10
962.6742134183
 20
-734.7588550099
 10
956.9633393523
 20
-742.1933682897
 10
951.1246909564
 20
-749.4565913872
 10
945.1661501315
 20
-756.5387192927
 10
939.0957606278
 20
-763.4301914662
 10
932.921717186
 20
-770.121704744
 10
926.6523544745
 20
-776.6042258976
 10
920.2961358385
 20
-782.8690038281
 10
913.8616418745
 20
-788.9075813795
 10
907.3575588471
 20
-794.711806756
 10
900.7926669627
 20
-800.2738445259
 10
894.1758285169
 20
-805.5861861996
 10
887.5159759308
 20
-810.6416603654
 10
880.8220996924
 20
-815.4334423707
 10
874.1032362202
 20
-819.9550635349
 10
867.3684556641
 20
-824.2004198821
 10
860.6268496615
 20
-828.1637803804
 10
853.8875190638
 20
-831.8397946795
 10
847.1595616505
 20
-835.2235003327
 10
840.4520598481
 20
-838.3103294965
 10
833.774068469
 20
-841.0961150965
 10
827.1346024876
 20
-843.577096453
 10
820.5426248711
 20
-845.7499243577
 10
814.0070344797
 20
-847.6116655951
 10
807.5366540531
 20
-849.159806902
 10
801.1402183011
 20
-850.3922583603
 10
794.8263621113
 20
-851.3073562185
 10
788.603608893
 20
-851.9038651374
 10
782.4803590706
 20
-852.1809798581
 10
776.4648787436
 20
-852.1383262887
 10
770.565288528
 20
-851.7759620096
 10
764.7895525933
 20
-851.0943761953
 10
759.1454679116
 20
-850.0944889549
 10
753.6406537321
 20
-848.777650089
 10
748.2825412953
 20
-847.1456372684
 10
743.0783638012
 20
-845.2006536335
 10
738.035146645
 20
-842.945324821
 10
733.1596979328
 20
-840.3826954187
 10
728.4585992913
 20
-837.516224856
 10
723.9381969829
 20
-834.3497827335
 10
719.6045933382
 20
-830.8876435992
 10
715.4636385186
 20
-827.1344811782
 10
711.5209226185
 20
-823.0953620637
 10
707.7817681191
 20
-818.7757388764
 10
704.2512227034
 20
-814.1814429049
 10
700.9340524417
 20
-809.3186762328
 10
697.8347353581
 20
-804.1940033666
 10
694.9574553849
 20
-798.8143423739
 10
692.3060967151
 20
-793.1869555444
 10
689.8842385581
 20
-787.3194395858
 10
687.6951503088
 20
-781.219715369
 10
685.7417871334
 20
-774.8960172351
 10
684.0267859804
 20
-768.3568818795
 10
682.5524620209
 20
-761.6111368277
 10
681.3208055228
 20
-754.6678885185
 10
680.3334791646
 20
-747.5365100109
 10
679.5918157904
 20
-740.2266283309
 10
679.0968166111
 20
-732.7481114753
 10
678.8491498522
 20
-725.1110550904
 10
678.8491498522
 20
-717.3257688436
 10
679.0968166111
 20
-709.4027625056
 10
679.5918157904
 20
-701.3527317625
 10
680.3334791646
 20
-693.1865437777
 10
681.3208055228
 20
-684.9152225213
 10
682.5524620209
 20
-676.5499338884
 10
684.0267859804
 20
-668.1019706256
 10
685.7417871334
 20
-659.5827370863
 10
687.6951503088
 20
-651.0037338357
 10
689.8842385581
 20
-642.3765421249
 10
692.3060967151
 20
-633.7128082574
 10
694.9574553849
 20
-625.024227867
 10
697.8347353581
 20
-616.3225301289
 10
700.9340524417
 20
-607.6194619263
 10
704.2512227034
 20
-598.9267719922
 10
707.7817681191
 20
-590.2561950497
 10
711.5209226185
 20
-581.6194359703
 10
715.4636385186
 20
-573.028153973
 10
719.6045933382
 20
-564.4939468847
 10
723.9381969829
 20
-556.0283354842
 10
728.4585992913
 20
-547.6427479489
 10
733.1596979328
 20
-539.3485044282
 10
738.035146645
 20
-531.156801761
 10
743.0783638012
 20
-523.0786983612
 10
748.2825412953
 20
-515.1250992886
 10
753.6406537321
 20
-507.3067415285
 10
759.1454679116
 20
-499.6341794964
 10
764.7895525933
 20
-492.1177707905
 10
770.565288528
 20
-484.7676622096
 10
776.4648787436
 20
-477.5937760547
 10
782.4803590706
 20
-470.6057967353
 10
788.603608893
 20
-463.813157695
 10
794.8263621113
 20
-457.2250286773
 10
801.1402183011
 20
-450.8503033471
 10
807.5366540531
 20
-444.6975872838
 10
814.0070344797
 20
-438.7751863651
 10
820.5426248711
 20
-433.0910955541
 10
827.1346024876
 20
-427.6529881062
 10
833.774068469
 20
-422.4682052109
 10
840.4520598482
 20
-417.5437460817
 10
847.1595616505
 20
-412.8862585069
 10
853.8875190638
 20
-408.502029876
 10
860.6268496615
 20
-404.3969786915
 10
867.3684556641
 20
-400.5766465798
 10
874.1032362202
 20
-397.0461908097
 10
880.8220996924
 20
-393.8103773305
 10
887.5159759308
 20
-390.8735743386
 10
894.1758285169
 20
-388.2397463798
 10
900.7926669627
 20
-385.9124489983
 10
907.3575588471
 20
-383.8948239362
 10
913.8616418745
 20
-382.1895948923
 10
920.2961358385
 20
-380.799063846
 10
926.6523544745
 20
-379.7251079487
 10
932.921717186
 20
-378.9691769905
 10
939.0957606278
 20
-378.5322914426
 10
945.1661501315
 20
-378.4150410799
 10
951.1246909564
 20
-378.6175841851
 10
956.9633393523
 20
-379.1396473343
 10
962.6742134183
 20
-379.9805257669
 10
968.2496037427
 20
-381.1390843365
 10
973.6819838104
 20
-382.6137590434
 10
978.9640201637
 20
-384.4025591462
 10
984.0885823016
 20
-386.5030698486
 10
989.048752306
 20
-388.91245556
 10
993.8378341804
 20
-391.6274637228
 10
998.4493628894
 20
-394.6444292036
 10
1002.8771130859
 20
-397.9592792407
 10
1007.1151075151
 20
-401.5675389424
 10
1011.1576250836
 20
-405.4643373275
 10
1014.9992085827
 20
-409.6444139013
 10
1018.6346720551
 20
-414.1021257568
 10
1022.059107796
 20
-418.8314551926
 10
1025.267892978
 20
-423.826017836
 10
1028.2566958919
 20
-429.0790712621
 10
1031.0214817942
 20
-434.5835240957
 10
1033.5585183537
 20
-440.3319455839
 10
1035.8643806904
 20
-446.316575628
 10
1037.9359559984
 20
-452.5293352585
 10
1039.7704477484
 20
-458.9618375418
 10
1041.3653794628
 20
-465.6053989021
 10
1042.7185980586
 20
-472.4510508437
 10
1043.8282767543
 20
-479.4895520581
 10
1044.6929175358
 20
-486.7114008993
 10
1045.3113531787
 20
-494.1068482107
 10
1045.682748824
 20
-501.6659104859
 10
1045.8066031049
 20
-509.3783833461
  0
LWPOLYLINE
  5
217
330
1F
100
AcDbEntity
  8
0
  6
Continuous
 62
     7
370
    25
100
AcDbPolyline
 90
       40
 70
   128
 43
0.0
 10
1080.6864270324
 20
-411.0219434763
 10
1080.558231173
 20
-412.9297023758
 10
1080.1769638001
 20
-414.9360631107
 10
1079.5524995384
 20
-416.9890619918
 10
1078.7010116842
 20
-419.0355274266
 10
1077.6445533259
 20
-421.0224570352
 10
1076.4104861798
 20
-422.8983903845
 10
1075.0307719368
 20
-424.614741786
 10
1073.5411444711
 20
-426.1270586401
 10
1071.9801843517
 20
-427.3961727346
 10
1070.3883196256
 20
-428.3892146811
 10
1068.8067787531
 20
-429.0804652148
 10
1067.276522812
 20
-429.4520213099
 10
1065.8371846275
 20
-429.4942598589
 10
1064.5260423024
 20
-429.2060869054
 10
1063.3770537343
 20
-428.5949659775
 10
1062.4199771235
 20
-427.6767247864
 10
1061.6796002515
 20
-426.4751452965
 10
1061.1750984905
 20
-425.0213477854
 10
1060.9195381709
 20
-423.3529848451
 10
1060.9195381709
 20
-421.5132661993
 10
1061.1750984905
 20
-419.5498395946
 10
1061.6796002515
 20
-417.5135567488
 10
1062.4199771235
 20
-415.4571563178
 10
1063.3770537343
 20
-413.4338979928
 10
1064.5260423024
 20
-411.4961831016
 10
1065.8371846275
 20
-409.6941974419
 10
1067.276522812
 20
-408.0746114959
 10
1068.8067787531
 20
-406.6793716889
 10
1070.3883196256
 20
-405.5446139989
 10
1071.9801843517
 20
-404.699728054
 10
1073.5411444711
 20
-404.1665959564
 10
1075.0307719368
 20
-403.9590255475
 10
1076.4104861798
 20
-404.0823927918
 10
1077.6445533259
 20
-404.5335025424
 10
1078.7010116842
 20
-405.3006712937
 10
1079.5524995384
 20
-406.3640297782
 10
1080.1769638001
 20
-407.6960375695
 10
1080.558231173
 20
-409.2621963656
 10
1080.6864270324
 20
-411.0219434763
  0
LWPOLYLINE
  5
218
330
1F
100
AcDbEntity
  8
0
  6
Continuous
 62
     7
370
    25
100
AcDbPolyline
 90
       40
 70
   128
 43
0.0
 10
1001.0562390346
 20
-330.4276466762
 10
1000.9280431752
 20
-332.3354055757
 10
1000.5467758022
 20
-334.3417663106
 10
999.9223115405
 20
-336.3947651917
 10
999.0708236864
 20
-338.4412306265
 10
998.014365328
 20
-340.4281602351
 10
996.7802981819
 20
-342.3040935844
 10
995.400583939
 20
-344.0204449859
 10
993.9109564733
 20
-345.53276184
 10
992.3499963539
 20
-346.8018759345
 10
990.7581316278
 20
-347.794917881
 10
989.1765907553
 20
-348.4861684147
 10
987.6463348142
 20
-348.8577245098
 10
986.2069966297
 20
-348.8999630588
 10
984.8958543046
 20
-348.6117901053
 10
983.7468657365
 20
-348.0006691774
 10
982.7897891257
 20
-347.0824279863
 10
982.0494122537
 20
-345.8808484964
 10
981.5449104926
 20
-344.4270509853
 10
981.2893501731
 20
-342.758688045
 10
981.2893501731
 20
-340.9189693992
 10
981.5449104926
 20
-338.9555427945
 10
982.0494122537
 20
-336.9192599486
 10
982.7897891257
 20
-334.8628595177
 10
983.7468657365
 20
-332.8396011927
 10
984.8958543046
 20
-330.9018863015
 10
986.2069966297
 20
-329.0999006418
 10
987.6463348142
 20
-327.4803146958
 10
989.1765907553
 20
-326.0850748888
 10
990.7581316278
 20
-324.9503171987
 10
992.3499963539
 20
-324.1054312539
 10
993.9109564733
 20
-323.5722991563
 10
995.400583939
 20
-323.3647287474
 10
996.7802981819
 20
-323.4880959916
 10
998.014365328
 20
-323.9392057422
 10
999.0708236864
 20
-324.7063744936
 10
999.9223115405
 20
-325.769732978
 10
1000.5467758022
 20
-327.1017407694
 10
1000.9280431752
 20
-328.6678995654
 10
1001.0562390346
 20
-330.4276466762
  0
LWPOLYLINE
  5
219
330
1F
100
AcDbEntity
  8
0
  6
Continuous
 62
     7
370
    25
100
AcDbPolyline
 90
       40
 70
   128
 43
0.0
 10
1091.4149904914
 20
-483.0492217398
 10
1091.286794632
 20
-484.9569806393
 10
1090.9055272591
 20
-486.9633413742
 10
1090.2810629974
 20
-489.0163402554
 10
1089.4295751432
 20
-491.0628056902
 10
1088.3731167849
 20
-493.0497352988
 10
1087.1390496388
 20
-494.925668648
 10
1085.7593353958
 20
-496.6420200496
 10
1084.2697079301
 20
-498.1543369037
 10
1082.7087478107
 20
-499.4234509982
 10
1081.1168830846
 20
-500.4164929447
 10
1079.5353422121
 20
-501.1077434783
 10
1078.005086271
 20
-501.4792995735
 10
1076.5657480865
 20
-501.5215381224
 10
1075.2546057614
 20
-501.2333651689
 10
1074.1056171933
 20
-500.6222442411
 10
1073.1485405825
 20
-499.70400305
 10
1072.4081637105
 20
-498.50242356
 10
1071.9036619495
 20
-497.048626049
 10
1071.6481016299
 20
-495.3802631086
 10
1071.6481016299
 20
-493.5405444629
 10
1071.9036619495
 20
-491.5771178582
 10
1072.4081637105
 20
-489.5408350123
 10
1073.1485405825
 20
-487.4844345814
 10
1074.1056171933
 20
-485.4611762564
 10
1075.2546057614
 20
-483.5234613651
 10
1076.5657480865
 20
-481.7214757055
 10
1078.005086271
 20
-480.1018897595
 10
1079.5353422121
 20
-478.7066499524
 10
1081.1168830846
 20
-477.5718922624
 10
1082.7087478107
 20
-476.7270063176
 10
1084.2697079301
 20
-476.19387422
 10
1085.7593353958
 20
-475.9863038111
 10
1087.1390496388
 20
-476.1096710553
 10
1088.3731167849
 20
-476.5607808059
 10
1089.4295751432
 20
-477.3279495573
 10
1090.2810629974
 20
-478.3913080417
 10
1090.9055272591
 20
-479.723315833
 10
1091.286794632
 20
-481.2894746291
 10
1091.4149904914
 20
-483.0492217398
  0
LWPOLYLINE
  5
21A
330
1F
100
AcDbEntity
  8
0
  6
Continuous
 62
     7
370
    25
100
AcDbPolyline
 90
       40
 70
   128
 43
0.0
 10
1049.5509231971
 20
-656.0015339744
 10
1049.4227273376
 20
-657.9092928739
 10
1049.0414599647
 20
-659.9156536088
 10
1048.416995703
 20
-661.96865249
 10
1047.5655078489
 20
-664.0151179248
 10
1046.5090494905
 20
-666.0020475334
 10
1045.2749823444
 20
-667.8779808827
 10
1043.8952681014
 20
-669.5943322842
 10
1042.4056406358
 20
-671.1066491383
 10
1040.8446805163
 20
-672.3757632328
 10
1039.2528157902
 20
-673.3688051793
 10
1037.6712749177
 20
-674.060055713
 10
1036.1410189767
 20
-674.4316118081
 10
1034.7016807921
 20
-674.4738503571
 10
1033.3905384671
 20
-674.1856774035
 10
1032.2415498989
 20
-673.5745564757
 10
1031.2844732881
 20
-672.6563152846
 10
1030.5440964162
 20
-671.4547357946
 10
1030.0395946551
 20
-670.0009382836
 10
1029.7840343355
 20
-668.3325753432
 10
1029.7840343355
 20
-666.4928566975
 10
1030.0395946551
 20
-664.5294300928
 10
1030.5440964162
 20
-662.4931472469
 10
1031.2844732881
 20
-660.436746816
 10
1032.2415498989
 20
-658.413488491
 10
1033.3905384671
 20
-656.4757735997
 10
1034.7016807921
 20
-654.6737879401
 10
1036.1410189767
 20
-653.0542019941
 10
1037.6712749177
 20
-651.658962187
 10
1039.2528157902
 20
-650.524204497
 10
1040.8446805163
 20
-649.6793185522
 10
1042.4056406358
 20
-649.1461864546
 10
1043.8952681014
 20
-648.9386160457
 10
1045.2749823444
 20
-649.0619832899
 10
1046.5090494905
 20
-649.5130930405
 10
1047.5655078489
 20
-650.2802617919
 10
1048.416995703
 20
-651.3436202763
 10
1049.0414599647
 20
-652.6756280676
 10
1049.4227273376
 20
-654.2417868637
 10
1049.5509231971
 20
-656.0015339744
  0
LWPOLYLINE
  5
21B
330
1F
100
AcDbEntity
  8
0
  6
Continuous
 62
     7
370
    25
100
AcDbPolyline
 90
       40
 70
   128
 43
0.0
 10
939.9493721131
 20
-811.2271646222
 10
939.8211762537
 20
-813.1349235217
 10
939.4399088808
 20
-815.1412842566
 10
938.8154446191
 20
-817.1942831378
 10
937.9639567649
 20
-819.2407485725
 10
936.9074984066
 20
-821.2276781812
 10
935.6734312604
 20
-823.1036115304
 10
934.2937170175
 20
-824.819962932
 10
932.8040895518
 20
-826.3322797861
 10
931.2431294324
 20
-827.6013938805
 10
929.6512647063
 20
-828.594435827
 10
928.0697238338
 20
-829.2856863607
 10
926.5394678927
 20
-829.6572424559
 10
925.1001297082
 20
-829.6994810048
 10
923.7889873831
 20
-829.4113080513
 10
922.639998815
 20
-828.8001871235
 10
921.6829222042
 20
-827.8819459323
 10
920.9425453322
 20
-826.6803664424
 10
920.4380435712
 20
-825.2265689313
 10
920.1824832516
 20
-823.558205991
 10
920.1824832516
 20
-821.7184873452
 10
920.4380435712
 20
-819.7550607405
 10
920.9425453322
 20
-817.7187778947
 10
921.6829222042
 20
-815.6623774638
 10
922.639998815
 20
-813.6391191388
 10
923.7889873831
 20
-811.7014042475
 10
925.1001297082
 20
-809.8994185879
 10
926.5394678927
 20
-808.2798326419
 10
928.0697238338
 20
-806.8845928348
 10
929.6512647063
 20
-805.7498351448
 10
931.2431294324
 20
-804.9049491999
 10
932.8040895518
 20
-804.3718171024
 10
934.2937170175
 20
-804.1642466935
 10
935.6734312604
 20
-804.2876139377
 10
936.9074984066
 20
-804.7387236883
 10
937.9639567649
 20
-805.5058924396
 10
938.8154446191
 20
-806.5692509241
 10
939.4399088808
 20
-807.9012587154
 10
939.8211762537
 20
-809.4674175115
 10
939.9493721131
 20
-811.2271646222
  0
LWPOLYLINE
  5
21C
330
1F
100
AcDbEntity
  8
0
  6
Continuous
 62
     7
370
    25
100
AcDbPolyline
 90
       40
 70
   128
 43
0.0
 10
804.474404534
 20
-889.4351987008
 10
804.3462086745
 20
-891.3429576003
 10
803.9649413016
 20
-893.3493183352
 10
803.3404770399
 20
-895.4023172164
 10
802.4889891858
 20
-897.4487826512
 10
801.4325308274
 20
-899.4357122598
 10
800.1984636813
 20
-901.311645609
 10
798.8187494383
 20
-903.0279970106
 10
797.3291219727
 20
-904.5403138647
 10
795.7681618532
 20
-905.8094279592
 10
794.1762971271
 20
-906.8024699057
 10
792.5947562546
 20
-907.4937204393
 10
791.0645003136
 20
-907.8652765345
 10
789.6251621291
 20
-907.9075150834
 10
788.314019804
 20
-907.6193421299
 10
787.1650312358
 20
-907.0082212021
 10
786.207954625
 20
-906.089980011
 10
785.4675777531
 20
-904.888400521
 10
784.963075992
 20
-903.43460301
 10
784.7075156725
 20
-901.7662400696
 10
784.7075156725
 20
-899.9265214238
 10
784.963075992
 20
-897.9630948192
 10
785.4675777531
 20
-895.9268119733
 10
786.207954625
 20
-893.8704115424
 10
787.1650312358
 20
-891.8471532174
 10
788.314019804
 20
-889.9094383261
 10
789.6251621291
 20
-888.1074526665
 10
791.0645003136
 20
-886.4878667205
 10
792.5947562546
 20
-885.0926269134
 10
794.1762971271
 20
-883.9578692234
 10
795.7681618532
 20
-883.1129832785
 10
797.3291219727
 20
-882.579851181
 10
798.8187494383
 20
-882.3722807721
 10
800.1984636813
 20
-882.4956480163
 10
801.4325308274
 20
-882.9467577669
 10
802.4889891858
 20
-883.7139265183
 10
803.3404770399
 20
-884.7772850027
 10
803.9649413016
 20
-886.109292794
 10
804.3462086745
 20
-887.6754515901
 10
804.474404534
 20
-889.4351987008
  0
LWPOLYLINE
  5
21D
330
1F
100
AcDbEntity
  8
0
  6
Continuous
 62
     7
370
    25
100
AcDbPolyline
 90
       40
 70
   128
 43
0.0
 10
694.87285345
 20
-860.7528253856
 10
694.7446575906
 20
-862.6605842851
 10
694.3633902177
 20
-864.66694502
 10
693.738925956
 20
-866.7199439011
 10
692.8874381019
 20
-868.7664093359
 10
691.8309797435
 20
-870.7533389445
 10
690.5969125974
 20
-872.6292722938
 10
689.2171983544
 20
-874.3456236953
 10
687.7275708887
 20
-875.8579405494
 10
686.1666107693
 20
-877.1270546439
 10
684.5747460432
 20
-878.1200965904
 10
682.9932051707
 20
-878.8113471241
 10
681.4629492297
 20
-879.1829032193
 10
680.0236110451
 20
-879.2251417682
 10
678.71246872
 20
-878.9369688147
 10
677.5634801519
 20
-878.3258478868
 10
676.6064035411
 20
-877.4076066957
 10
675.8660266691
 20
-876.2060272058
 10
675.3615249081
 20
-874.7522296947
 10
675.1059645885
 20
-873.0838667544
 10
675.1059645885
 20
-871.2441481086
 10
675.3615249081
 20
-869.2807215039
 10
675.8660266691
 20
-867.2444386581
 10
676.6064035411
 20
-865.1880382271
 10
677.5634801519
 20
-863.1647799021
 10
678.71246872
 20
-861.2270650109
 10
680.0236110451
 20
-859.4250793512
 10
681.4629492297
 20
-857.8054934052
 10
682.9932051707
 20
-856.4102535982
 10
684.5747460432
 20
-855.2754959082
 10
686.1666107693
 20
-854.4306099633
 10
687.7275708887
 20
-853.8974778658
 10
689.2171983544
 20
-853.6899074568
 10
690.5969125974
 20
-853.8132747011
 10
691.8309797435
 20
-854.2643844517
 10
692.8874381019
 20
-855.031553203
 10
693.738925956
 20
-856.0949116875
 10
694.3633902177
 20
-857.4269194788
 10
694.7446575906
 20
-858.9930782749
 10
694.87285345
 20
-860.7528253856
  0
LWPOLYLINE
  5
21E
330
1F
100
AcDbEntity
  8
0
  6
Continuous
 62
     7
370
    25
100
AcDbPolyline
 90
       40
 70
   128
 43
0.0
 10
653.0087861557
 20
-736.1357364049
 10
652.8805902963
 20
-738.0434953044
 10
652.4993229233
 20
-740.0498560393
 10
651.8748586616
 20
-742.1028549204
 10
651.0233708075
 20
-744.1493203552
 10
649.9669124491
 20
-746.1362499638
 10
648.732845303
 20
-748.0121833131
 10
647.3531310601
 20
-749.7285347146
 10
645.8635035944
 20
-751.2408515687
 10
644.302543475
 20
-752.5099656632
 10
642.7106787489
 20
-753.5030076097
 10
641.1291378764
 20
-754.1942581434
 10
639.5988819353
 20
-754.5658142385
 10
638.1595437508
 20
-754.6080527875
 10
636.8484014257
 20
-754.319879834
 10
635.6994128576
 20
-753.7087589061
 10
634.7423362468
 20
-752.790517715
 10
634.0019593748
 20
-751.5889382251
 10
633.4974576137
 20
-750.135140714
 10
633.2418972942
 20
-748.4667777737
 10
633.2418972942
 20
-746.6270591279
 10
633.4974576137
 20
-744.6636325232
 10
634.0019593748
 20
-742.6273496774
 10
634.7423362468
 20
-740.5709492464
 10
635.6994128576
 20
-738.5476909214
 10
636.8484014257
 20
-736.6099760302
 10
638.1595437508
 20
-734.8079903705
 10
639.5988819353
 20
-733.1884044245
 10
641.1291378764
 20
-731.7931646175
 10
642.7106787489
 20
-730.6584069275
 10
644.302543475
 20
-729.8135209826
 10
645.8635035944
 20
-729.2803888851
 10
647.3531310601
 20
-729.0728184761
 10
648.732845303
 20
-729.1961857204
 10
649.9669124491
 20
-729.647295471
 10
651.0233708075
 20
-730.4144642223
 10
651.8748586616
 20
-731.4778227068
 10
652.4993229233
 20
-732.8098304981
 10
652.8805902963
 20
-734.3759892942
 10
653.0087861557
 20
-736.1357364049
  0
LWPOLYLINE
  5
21F
330
1F
100
AcDbEntity
  8
0
  6
Continuous
 62
     7
370
    25
100
AcDbPolyline
 90
       40
 70
   128
 43
0.0
 10
694.8728534501
 20
-563.1834241703
 10
694.7446575906
 20
-565.0911830698
 10
694.3633902177
 20
-567.0975438047
 10
693.738925956
 20
-569.1505426858
 10
692.8874381019
 20
-571.1970081206
 10
691.8309797435
 20
-573.1839377292
 10
690.5969125974
 20
-575.0598710785
 10
689.2171983544
 20
-576.77622248
 10
687.7275708888
 20
-578.2885393341
 10
686.1666107693
 20
-579.5576534286
 10
684.5747460432
 20
-580.5506953751
 10
682.9932051707
 20
-581.2419459088
 10
681.4629492297
 20
-581.6135020039
 10
680.0236110451
 20
-581.6557405529
 10
678.7124687201
 20
-581.3675675994
 10
677.5634801519
 20
-580.7564466715
 10
676.6064035411
 20
-579.8382054804
 10
675.8660266692
 20
-578.6366259905
 10
675.3615249081
 20
-577.1828284794
 10
675.1059645885
 20
-575.5144655391
 10
675.1059645885
 20
-573.6747468933
 10
675.3615249081
 20
-571.7113202886
 10
675.8660266692
 20
-569.6750374428
 10
676.6064035411
 20
-567.6186370118
 10
677.5634801519
 20
-565.5953786868
 10
678.7124687201
 20
-563.6576637956
 10
680.0236110451
 20
-561.8556781359
 10
681.4629492297
 20
-560.2360921899
 10
682.9932051707
 20
-558.8408523829
 10
684.5747460432
 20
-557.7060946929
 10
686.1666107693
 20
-556.861208748
 10
687.7275708888
 20
-556.3280766504
 10
689.2171983544
 20
-556.1205062415
 10
690.5969125974
 20
-556.2438734858
 10
691.8309797435
 20
-556.6949832364
 10
692.8874381019
 20
-557.4621519877
 10
693.738925956
 20
-558.5255104721
 10
694.3633902177
 20
-559.8575182635
 10
694.7446575906
 20
-561.4236770596
 10
694.8728534501
 20
-563.1834241703
  0
LWPOLYLINE
  5
220
330
1F
100
AcDbEntity
  8
0
  6
Continuous
 62
     7
370
    25
100
AcDbPolyline
 90
       40
 70
   128
 43
0.0
 10
804.474404534
 20
-407.9577935225
 10
804.3462086746
 20
-409.865552422
 10
803.9649413016
 20
-411.8719131569
 10
803.3404770399
 20
-413.9249120381
 10
802.4889891858
 20
-415.9713774728
 10
801.4325308274
 20
-417.9583070815
 10
800.1984636813
 20
-419.8342404307
 10
798.8187494384
 20
-421.5505918323
 10
797.3291219727
 20
-423.0629086863
 10
795.7681618533
 20
-424.3320227808
 10
794.1762971272
 20
-425.3250647273
 10
792.5947562547
 20
-426.016315261
 10
791.0645003136
 20
-426.3878713562
 10
789.6251621291
 20
-426.4301099051
 10
788.314019804
 20
-426.1419369516
 10
787.1650312359
 20
-425.5308160238
 10
786.2079546251
 20
-424.6125748326
 10
785.4675777531
 20
-423.4109953427
 10
784.963075992
 20
-421.9571978316
 10
784.7075156725
 20
-420.2888348913
 10
784.7075156725
 20
-418.4491162455
 10
784.963075992
 20
-416.4856896408
 10
785.4675777531
 20
-414.449406795
 10
786.2079546251
 20
-412.3930063641
 10
787.1650312359
 20
-410.3697480391
 10
788.314019804
 20
-408.4320331478
 10
789.6251621291
 20
-406.6300474882
 10
791.0645003136
 20
-405.0104615422
 10
792.5947562547
 20
-403.6152217351
 10
794.1762971272
 20
-402.4804640451
 10
795.7681618533
 20
-401.6355781002
 10
797.3291219727
 20
-401.1024460027
 10
798.8187494384
 20
-400.8948755938
 10
800.1984636813
 20
-401.018242838
 10
801.4325308274
 20
-401.4693525886
 10
802.4889891858
 20
-402.2365213399
 10
803.3404770399
 20
-403.2998798244
 10
803.9649413016
 20
-404.6318876157
 10
804.3462086746
 20
-406.1980464118
 10
804.474404534
 20
-407.9577935225
  0
ARC
  5
221
330
1F
100
AcDbEntity
  8
0
  6
Continuous
 62
     7
370
    25
100
AcDbCircle
 10
947.5434373506
 20
-469.2073035155
 30
0.0
 40
89.30104452503468
100
AcDbArc
 50
38.1641155479
 51
84.8697602534
  0
ARC
  5
222
330
1F
100
AcDbEntity
  8
0
  6
Continuous
 62
     7
370
    25
100
AcDbCircle
 10
778.6706194408
 20
-761.86835068
 30
0.0
 40
89.68835737571484
100
AcDbArc
 50
215.1625681573
 51
265.8817349255
  0
ARC
  5
223
330
1F
100
AcDbEntity
  8
0
  6
Continuous
 62
     7
370
    25
100
AcDbCircle
 10
812.9098083394
 20
-776.0799093013
 30
0.0
 40
94.74056972217764
100
AcDbArc
 50
217.1050872435
 51
228.2953745774
  0
ARC
  5
224
330
1F
100
AcDbEntity
  8
0
  6
Continuous
 62
     7
370
    25
100
AcDbCircle
 10
976.9841956901
 20
-491.5370066672
 30
0.0
 40
94.13340203511216
100
AcDbArc
 50
71.6849831928
 51
81.8848582376
  0
LINE
  5
225
330
1F
100
AcDbEntity
  8
0
  6
Continuous
 62
     7
370
    25
100
AcDbLine
 10
1047.1040933191
 20
-651.019210083
 30
0.0
 11
1046.8580068038
 21
-650.8659596022
 31
0.0
  0
LINE
  5
226
330
1F
100
AcDbEntity
  8
0
  6
Continuous
 62
     7
370
    25
100
AcDbLine
 10
998.6094091566
 20
-735.0144667029
 30
0.0
 11
998.3633226413
 21
-734.8612162221
 31
0.0
  0
LINE
  5
227
330
1F
100
AcDbEntity
  8
0
  6
Continuous
 62
     7
370
    25
100
AcDbLine
 10
1078.2395971545
 20
-562.4811118184
 30
0.0
 11
1077.9935106391
 21
-562.3278613375
 31
0.0
  0
LINE
  5
228
330
1F
100
AcDbEntity
  8
0
  6
Continuous
 62
     7
370
    25
100
AcDbLine
 10
937.5025422352
 20
-806.2448407308
 30
0.0
 11
937.2564557198
 21
-806.0915902499
 31
0.0
  0
LINE
  5
229
330
1F
100
AcDbEntity
  8
0
  6
Continuous
 62
     7
370
    25
100
AcDbLine
 10
1088.9681606135
 20
-478.0668978484
 30
0.0
 11
1088.7220740981
 21
-477.9136473676
 31
0.0
  0
LINE
  5
22A
330
1F
100
AcDbEntity
  8
0
  6
Continuous
 62
     7
370
    25
100
AcDbLine
 10
869.7650584456
 20
-857.7378068656
 30
0.0
 11
869.5189719303
 21
-857.5845563847
 31
0.0
  0
LINE
  5
22B
330
1F
100
AcDbEntity
  8
0
  6
Continuous
 62
     7
370
    25
100
AcDbLine
 10
1078.2395971545
 20
-406.0396195849
 30
0.0
 11
1077.9935106391
 21
-405.886369104
 31
0.0
  0
LINE
  5
22C
330
1F
100
AcDbEntity
  8
0
  6
Continuous
 62
     7
370
    25
100
AcDbLine
 10
802.027574656
 20
-884.4528748094
 30
0.0
 11
801.7814881407
 21
-884.2996243285
 31
0.0
  0
LINE
  5
22D
330
1F
100
AcDbEntity
  8
0
  6
Continuous
 62
     7
370
    25
100
AcDbLine
 10
1047.1040933191
 20
-353.4498088677
 30
0.0
 11
1046.8580068038
 21
-353.2965583868
 31
0.0
  0
LINE
  5
22E
330
1F
100
AcDbEntity
  8
0
  6
Continuous
 62
     7
370
    25
100
AcDbLine
 10
740.9207077346
 20
-883.7749875772
 30
0.0
 11
740.6746212192
 21
-883.6217370963
 31
0.0
  0
LINE
  5
22F
330
1F
100
AcDbEntity
  8
0
  6
Continuous
 62
     7
370
    25
100
AcDbLine
 10
998.6094091567
 20
-325.4453227848
 30
0.0
 11
998.3633226413
 21
-325.2920723039
 31
0.0
  0
LINE
  5
230
330
1F
100
AcDbEntity
  8
0
  6
Continuous
 62
     7
370
    25
100
AcDbLine
 10
692.4260235721
 20
-855.7705014942
 30
0.0
 11
692.1799370568
 21
-855.6172510133
 31
0.0
  0
LINE
  5
231
330
1F
100
AcDbEntity
  8
0
  6
Continuous
 62
     7
370
    25
100
AcDbLine
 10
937.5025422352
 20
-324.7674355525
 30
0.0
 11
937.2564557199
 21
-324.6141850716
 31
0.0
  0
LINE
  5
232
330
1F
100
AcDbEntity
  8
0
  6
Continuous
 62
     7
370
    25
100
AcDbLine
 10
661.2905197367
 20
-803.180690777
 30
0.0
 11
661.0444332214
 21
-803.0274402962
 31
0.0
  0
LINE
  5
233
330
1F
100
AcDbEntity
  8
0
  6
Continuous
 62
     7
370
    25
100
AcDbLine
 10
869.7650584456
 20
-351.4825034963
 30
0.0
 11
869.5189719303
 21
-351.3292530154
 31
0.0
  0
LINE
  5
234
330
1F
100
AcDbEntity
  8
0
  6
Continuous
 62
     7
370
    25
100
AcDbLine
 10
650.5619562777
 20
-731.1534125135
 30
0.0
 11
650.3158697624
 21
-731.0001620326
 31
0.0
  0
LINE
  5
235
330
1F
100
AcDbEntity
  8
0
  6
Continuous
 62
     7
370
    25
100
AcDbLine
 10
802.0275746561
 20
-402.9754696311
 30
0.0
 11
801.7814881407
 21
-402.8222191502
 31
0.0
  0
LINE
  5
236
330
1F
100
AcDbEntity
  8
0
  6
Continuous
 62
     7
370
    25
100
AcDbLine
 10
661.2905197368
 20
-646.7391985435
 30
0.0
 11
661.0444332214
 21
-646.5859480626
 31
0.0
  0
LINE
  5
237
330
1F
100
AcDbEntity
  8
0
  6
Continuous
 62
     7
370
    25
100
AcDbLine
 10
740.9207077346
 20
-474.205843659
 30
0.0
 11
740.6746212193
 21
-474.0525931781
 31
0.0
  0
LINE
  5
238
330
1F
100
AcDbEntity
  8
0
  6
Continuous
 62
     7
370
    25
100
AcDbLine
 10
692.4260235721
 20
-558.2011002789
 30
0.0
 11
692.1799370568
 21
-558.047849798
 31
0.0
  0
LWPOLYLINE
  5
239
330
1F
100
AcDbEntity
  8
0
  6
Continuous
 62
     1
370
    25
100
AcDbPolyline
 90
       67
 70
   128
 43
0.0
 10
1102.7286989904
 20
-477.334364957
 10
1102.604273992
 20
-486.3237880597
 10
1102.2311281665
 20
-495.4475369922
 10
1101.6096488888
 20
-504.6961400908
 10
1100.7404813369
 20
-514.0599960768
 10
1099.6245278224
 20
-523.5293840235
 10
1098.2629468531
 20
-533.0944734481
 10
1096.6571519311
 20
-542.745334517
 10
1094.8088100848
 20
-552.4719483541
 10
1092.7198401387
 20
-562.264217442
 10
1090.392410721
 20
-572.1119761043
 10
1087.8289380128
 20
-582.0050010591
 10
1085.0320832393
 20
-591.9330220321
 10
1082.0047499074
 20
-601.8857324185
 10
1078.7500807912
 20
-611.8527999825
 10
1075.2714546698
 20
-621.8238775838
 10
1071.5724828193
 20
-631.788613919
 10
1067.6570052638
 20
-641.7366642678
 10
1063.5290867893
 20
-651.6577012324
 10
1059.1930127237
 20
-661.5414254581
 10
1054.6532844878
 20
-671.3775763261
 10
1049.9146149229
 20
-681.1559426048
 10
1044.9819233974
 20
-690.866373051
 10
1039.8603307006
 20
-700.4987869476
 10
1034.5551537262
 20
-710.0431845693
 10
1029.0718999526
 20
-719.4896575632
 10
1023.4162617259
 20
-728.8283992352
 10
1017.5941103499
 20
-738.0497147308
 10
1011.6114899914
 20
-747.1440310992
 10
1005.474611405
 20
-756.1019072319
 10
999.1898454862
 20
-764.9140436631
 10
992.7637166571
 20
-773.5712922245
 10
986.202896093
 20
-782.0646655419
 10
979.5141947974
 20
-790.3853463652
 10
972.7045565311
 20
-798.5246967224
 10
965.7810506031
 20
-806.4742668862
 10
958.7508645327
 20
-814.2258041467
 10
951.6212965869
 20
-821.7712613783
 10
944.3997482045
 20
-829.1028053939
 10
937.0937163122
 20
-836.2128250767
 10
929.7107855419
 20
-843.0939392816
 10
922.2586203566
 20
-849.7390044979
 10
914.7449570939
 20
-856.1411222649
 10
907.1775959345
 20
-862.2936463338
 10
899.5643928047
 20
-868.1901895672
 10
891.9132512209
 20
-873.8246305697
 10
884.2321140846
 20
-879.1911200431
 10
876.5289554366
 20
-884.2840868582
 10
868.8117721793
 20
-889.0982438388
 10
861.0885757739
 20
-893.6285932503
 10
853.3673839247
 20
-897.8704319882
 10
845.6562122545
 20
-901.8193564602
 10
837.9630659841
 20
-905.4712671581
 10
830.2959316215
 20
-908.8223729134
 10
822.6627686708
 20
-911.869194833
 10
815.0715013692
 20
-914.608569911
 10
807.530010461
 20
-917.0376543122
 10
800.0461250155
 20
-919.1539263241
 10
792.6276143002
 20
-920.9551889752
 10
785.282179715
 20
-922.4395723156
 10
778.0174467967
 20
-923.6055353582
 10
770.8409573035
 20
-924.4518676783
 10
763.7601613849
 20
-924.9776906707
 10
756.7824098478
 20
-925.1824584612
 10
749.9149465254
 20
-925.0659584736
 10
743.164900757
 20
-924.6283116504
 10
743.006072884
 20
-924.6140164546
  0
LWPOLYLINE
  5
23A
330
1F
100
AcDbEntity
  8
0
  6
Continuous
 62
     1
370
    25
100
AcDbPolyline
 90
       18
 70
   128
 43
0.0
 10
1070.6306970933
 20
-357.4943692358
 10
1071.5724828193
 20
-358.8523174964
 10
1075.2714546698
 20
-364.5463118383
 10
1078.7500807912
 20
-370.5010532099
 10
1082.0047499074
 20
-376.7103597986
 10
1085.0320832393
 20
-383.1677855192
 10
1087.8289380128
 20
-389.8666267057
 10
1090.392410721
 20
-396.7999290711
 10
1092.7198401387
 20
-403.9604949263
 10
1094.8088100848
 20
-411.3408906525
 10
1096.6571519311
 20
-418.9334544184
 10
1098.2629468531
 20
-426.7303041341
 10
1099.6245278224
 20
-434.7233456336
 10
1100.7404813369
 20
-442.9042810779
 10
1101.6096488888
 20
-451.264617569
 10
1102.2311281665
 20
-459.795675967
 10
1102.604273992
 20
-468.4885998996
 10
1102.7286989904
 20
-477.334364957
  0
LWPOLYLINE
  5
23B
330
1F
100
AcDbEntity
  8
0
  6
Continuous
 62
     1
370
    25
100
AcDbPolyline
 90
       18
 70
   128
 43
0.0
 10
1133.1342905814
 20
-494.8871393612
 10
1133.009865583
 20
-486.0413743038
 10
1132.6367197575
 20
-477.3484503712
 10
1132.0152404798
 20
-468.8173919732
 10
1131.1460729279
 20
-460.4570554821
 10
1130.0301194134
 20
-452.2761200378
 10
1128.6685384441
 20
-444.2830785383
 10
1127.0627435221
 20
-436.4862288226
 10
1125.2144016758
 20
-428.8936650567
 10
1123.1254317297
 20
-421.5132693304
 10
1120.798002312
 20
-414.3527034753
 10
1118.2345296038
 20
-407.4194011099
 10
1115.4376748303
 20
-400.7205599234
 10
1112.4103414984
 20
-394.2631342028
 10
1109.1556723822
 20
-388.0538276141
 10
1105.6770462608
 20
-382.0990862425
 10
1101.9780744103
 20
-376.4050919006
 10
1101.4284621994
 20
-375.6083751096
  0
LWPOLYLINE
  5
23C
330
1F
100
AcDbEntity
  8
0
  6
Continuous
 62
     1
370
    25
100
AcDbPolyline
 90
       66
 70
   128
 43
0.0
 10
774.35395521
 20
-942.2488681121
 10
780.3205381164
 20
-942.6187328778
 10
787.1880014388
 20
-942.7352328654
 10
794.1657529759
 20
-942.5304650749
 10
801.2465488945
 20
-942.0046420825
 10
808.4230383878
 20
-941.1583097623
 10
815.687771306
 20
-939.9923467198
 10
823.0332058913
 20
-938.5079633794
 10
830.4517166065
 20
-936.7067007282
 10
837.935602052
 20
-934.5904287164
 10
845.4770929603
 20
-932.1613443152
 10
853.0683602618
 20
-929.4219692372
 10
860.7015232125
 20
-926.3751473176
 10
868.3686575752
 20
-923.0240415623
 10
876.0618038456
 20
-919.3721308644
 10
883.7729755157
 20
-915.4232063924
 10
891.494167365
 20
-911.1813676545
 10
899.2173637703
 20
-906.651018243
 10
906.9345470277
 20
-901.8368612624
 10
914.6377056756
 20
-896.7438944473
 10
922.3188428119
 20
-891.3774049739
 10
929.9699843957
 20
-885.7429639713
 10
937.5831875255
 20
-879.846420738
 10
945.1505486849
 20
-873.6938966691
 10
952.6642119476
 20
-867.2917789021
 10
960.116377133
 20
-860.6467136858
 10
967.4993079033
 20
-853.7655994809
 10
974.8053397955
 20
-846.6555797981
 10
982.0268881779
 20
-839.3240357825
 10
989.1564561237
 20
-831.7785785509
 10
996.1866421942
 20
-824.0270412904
 10
1003.1101481221
 20
-816.0774711266
 10
1009.9197863885
 20
-807.9381207694
 10
1016.608487684
 20
-799.6174399461
 10
1023.1693082481
 20
-791.1240666287
 10
1029.5954370773
 20
-782.4668180673
 10
1035.880202996
 20
-773.654681636
 10
1042.0170815824
 20
-764.6968055034
 10
1047.9997019409
 20
-755.602489135
 10
1053.8218533169
 20
-746.3811736394
 10
1059.4774915436
 20
-737.0424319673
 10
1064.9607453172
 20
-727.5959589735
 10
1070.2659222916
 20
-718.0515613518
 10
1075.3875149885
 20
-708.4191474552
 10
1080.3202065139
 20
-698.708717009
 10
1085.0588760789
 20
-688.9303507303
 10
1089.5986043147
 20
-679.0941998623
 10
1093.9346783803
 20
-669.2104756366
 10
1098.0625968548
 20
-659.289438672
 10
1101.9780744103
 20
-649.3413883231
 10
1105.6770462608
 20
-639.3766519879
 10
1109.1556723822
 20
-629.4055743867
 10
1112.4103414984
 20
-619.4385068226
 10
1115.4376748303
 20
-609.4857964363
 10
1118.2345296038
 20
-599.5577754633
 10
1120.798002312
 20
-589.6647505085
 10
1123.1254317297
 20
-579.8169918462
 10
1125.2144016758
 20
-570.0247227583
 10
1127.0627435221
 20
-560.2981089212
 10
1128.6685384441
 20
-550.6472478523
 10
1130.0301194134
 20
-541.0821584277
 10
1131.1460729279
 20
-531.6127704809
 10
1132.0152404798
 20
-522.248914495
 10
1132.6367197575
 20
-513.0003113963
 10
1133.009865583
 20
-503.8765624639
 10
1133.1342905814
 20
-494.8871393612
  0
LWPOLYLINE
  5
23D
330
1F
100
AcDbEntity
  8
0
  6
Continuous
 62
     1
370
    25
100
AcDbPolyline
 90
       73
 70
   128
 43
0.0
 10
955.5287348004
 20
-380.2639981019
 10
950.4852436059
 20
-379.8809392037
 10
944.4947228883
 20
-379.7335872559
 10
938.3929168169
 20
-379.9085582702
 10
932.1881597246
 20
-380.4056132571
 10
925.8889265635
 20
-381.2240732993
 10
919.5038213282
 20
-382.3628204789
 10
913.0415653044
 20
-383.8202994041
 10
906.5109851567
 20
-385.5945193341
 10
899.9210008719
 20
-387.6830568978
 10
893.2806135758
 20
-390.0830594043
 10
886.5988932388
 20
-392.7912487386
 10
879.8849662872
 20
-395.80392584
 10
873.1480031375
 20
-399.116975754
 10
866.3972056711
 20
-402.7258732528
 10
859.6417946652
 20
-406.6256890165
 10
852.8909971988
 20
-410.811096366
 10
846.1540340491
 20
-415.2763785382
 10
839.4401070975
 20
-420.0154364949
 10
832.7583867605
 20
-425.0217972528
 10
826.1179994645
 20
-430.2886227254
 10
819.5280151796
 20
-435.8087190625
 10
812.9974350319
 20
-441.5745464767
 10
806.5351790081
 20
-447.5782295412
 10
800.1500737728
 20
-453.8115679471
 10
793.8508406117
 20
-460.2660477039
 10
787.6460835194
 20
-466.9328527686
 10
781.544277448
 20
-473.8028770875
 10
775.5537567304
 20
-480.8667370337
 10
769.6827036975
 20
-488.1147842242
 10
763.9391375014
 20
-495.5371186984
 10
758.3309031628
 20
-503.1236024402
 10
752.8656608551
 20
-510.8638732253
 10
747.5508754419
 20
-518.7473587749
 10
742.3938062808
 20
-526.763291196
 10
737.401497308
 20
-534.9007216892
 10
732.580767417
 20
-543.1485355031
 10
727.938201145
 20
-551.4954671163
 10
723.480139679
 20
-559.9301156241
 10
719.2126721949
 20
-568.4409603113
 10
715.1416275398
 20
-577.0163763878
 10
711.2725662711
 20
-585.6446508667
 10
707.610773061
 20
-594.3139985629
 10
704.1612494786
 20
-603.0125781902
 10
700.9287071583
 20
-611.7285085353
 10
697.917561364
 20
-620.4498846857
 10
695.1319249586
 20
-629.1647942906
 10
692.5756027864
 20
-637.8613338317
 10
690.252086476
 20
-646.5276248822
 10
688.1645496712
 20
-655.1518303309
 10
686.3158436962
 20
-663.7221705505
 10
684.7084936609
 20
-672.2269394872
 10
683.3446950122
 20
-680.6545206496
 10
682.226310535
 20
-688.9934029755
 10
681.3548678079
 20
-697.2321965548
 10
680.7315571169
 20
-705.3596481865
 10
680.3572298294
 20
-713.3646567491
 10
680.2323972314
 20
-721.2362883641
 10
680.3572298294
 20
-728.9637913292
 10
680.7315571169
 20
-736.5366108052
 10
681.3548678079
 20
-743.9444032314
 10
682.226310535
 20
-751.1770504544
 10
683.3446950122
 20
-758.2246735482
 10
684.7084936609
 20
-765.0776463073
 10
686.3158436962
 20
-771.7266083952
 10
688.1645496712
 20
-778.1624781295
 10
690.252086476
 20
-784.3764648863
 10
692.5756027864
 20
-790.3600811072
 10
695.1319249586
 20
-796.105153892
 10
697.917561364
 20
-801.6038361626
 10
700.9287071583
 20
-806.8486173802
 10
704.1612494786
 20
-811.8323338046
 10
705.3484758222
 20
-813.5197272727
  0
LWPOLYLINE
  5
23E
330
1F
100
AcDbEntity
  8
0
  6
Continuous
 62
     1
370
    25
100
AcDbPolyline
 90
       74
 70
   128
 43
0.0
 10
737.3513269652
 20
-833.2348867198
 10
734.5668410697
 20
-829.3851082088
 10
731.3342987493
 20
-824.4013917844
 10
728.323152955
 20
-819.1566105668
 10
725.5375165496
 20
-813.6579282962
 10
722.9811943774
 20
-807.9128555113
 10
720.657678067
 20
-801.9292392905
 10
718.5701412622
 20
-795.7152525337
 10
716.7214352872
 20
-789.2793827994
 10
715.1140852519
 20
-782.6304207114
 10
713.7502866032
 20
-775.7774479524
 10
712.631902126
 20
-768.7298248586
 10
711.7604593989
 20
-761.4971776356
 10
711.1371487079
 20
-754.0893852094
 10
710.7628214204
 20
-746.5165657334
 10
710.6379888225
 20
-738.7890627682
 10
710.7628214204
 20
-730.9174311533
 10
711.1371487079
 20
-722.9124225907
 10
711.7604593989
 20
-714.784970959
 10
712.631902126
 20
-706.5461773797
 10
713.7502866032
 20
-698.2072950537
 10
715.1140852519
 20
-689.7797138913
 10
716.7214352872
 20
-681.2749449547
 10
718.5701412622
 20
-672.7046047351
 10
720.657678067
 20
-664.0803992864
 10
722.9811943774
 20
-655.4141082359
 10
725.5375165496
 20
-646.7175686948
 10
728.323152955
 20
-638.0026590899
 10
731.3342987493
 20
-629.2812829395
 10
734.5668410697
 20
-620.5653525944
 10
738.016364652
 20
-611.8667729671
 10
741.6781578621
 20
-603.1974252709
 10
745.5472191308
 20
-594.569150792
 10
749.6182637859
 20
-585.9937347155
 10
753.8857312701
 20
-577.4828900283
 10
758.343792736
 20
-569.0482415205
 10
762.986359008
 20
-560.7013099073
 10
767.807088899
 20
-552.4534960934
 10
772.7993978718
 20
-544.3160656002
 10
777.9564670329
 20
-536.3001331791
 10
783.2712524461
 20
-528.4166476295
 10
788.7364947538
 20
-520.6763768443
 10
794.3447290925
 20
-513.0898931026
 10
800.0882952885
 20
-505.6675586284
 10
805.9593483215
 20
-498.4195114379
 10
811.949869039
 20
-491.3556514917
 10
818.0516751105
 20
-484.4856271728
 10
824.2564322027
 20
-477.8188221081
 10
830.5556653639
 20
-471.3643423513
 10
836.9407705992
 20
-465.1310039454
 10
843.4030266229
 20
-459.1273208809
 10
849.9336067707
 20
-453.3614934667
 10
856.5235910555
 20
-447.8413971295
 10
863.1639783515
 20
-442.574571657
 10
869.8456986885
 20
-437.5682108991
 10
876.5596256402
 20
-432.8291529424
 10
883.2965887898
 20
-428.3638707702
 10
890.0473862563
 20
-424.1784634207
 10
896.8027972621
 20
-420.278647657
 10
903.5535947285
 20
-416.6697501582
 10
910.2905578782
 20
-413.3567002442
 10
917.0044848298
 20
-410.3440231428
 10
923.6862051668
 20
-407.6358338085
 10
930.3265924629
 20
-405.235831302
 10
936.9165767477
 20
-403.1472937383
 10
943.4471568955
 20
-401.3730738083
 10
949.9094129192
 20
-399.9155948831
 10
956.2945181545
 20
-398.7768477035
 10
962.5937513157
 20
-397.9583876613
 10
968.7985084079
 20
-397.4613326744
 10
974.9003144794
 20
-397.2863616601
 10
980.8908351969
 20
-397.4337136078
 10
986.7618882298
 20
-397.9031872525
 10
990.2723363325
 20
-398.3462201217
  0
LWPOLYLINE
  5
23F
330
1F
100
AcDbEntity
  8
0
  6
Continuous
 62
     1
370
    25
100
AcDbPolyline
 90
       21
 70
   128
 43
0.0
 10
1046.8580068038
 20
-650.8659596022
 10
1046.5843701385
 20
-650.7207649227
 10
1045.386294812
 20
-650.3355831324
 10
1044.0510753053
 20
-650.2719748491
 10
1042.615132926
 20
-650.5316751409
 10
1041.1176364388
 20
-651.1076000609
 10
1039.5994336444
 20
-651.9840398785
 10
1038.1019371573
 20
-653.1370876003
 10
1036.665994778
 20
-654.5352910903
 10
1035.3307752713
 20
-656.1405110019
 10
1034.1326999447
 20
-657.9089611205
 10
1033.1044491701
 20
-659.792402737
 10
1032.274070948
 20
-661.7394604737
 10
1031.6642158318
 20
-663.6970236712
 10
1031.2915190793
 20
-665.6116951085
 10
1031.1661468862
 20
-667.43124754
 10
1031.2915190793
 20
-669.1060483184
 10
1031.6642158318
 20
-670.5904132445
 10
1032.274070948
 20
-671.8438527126
 10
1033.1044491701
 20
-672.8321761613
 10
1033.9104860213
 20
-673.4124497516
  0
LWPOLYLINE
  5
240
330
1F
100
AcDbEntity
  8
0
  6
Continuous
 62
     1
370
    25
100
AcDbPolyline
 90
       21
 70
   128
 43
0.0
 10
998.3633226413
 20
-734.8612162221
 10
998.0896859761
 20
-734.7160215426
 10
996.8916106495
 20
-734.3308397523
 10
995.5563911428
 20
-734.267231469
 10
994.1204487635
 20
-734.5269317608
 10
992.6229522764
 20
-735.1028566808
 10
991.104749482
 20
-735.9792964984
 10
989.6072529948
 20
-737.1323442202
 10
988.1713106155
 20
-738.5305477102
 10
986.8360911088
 20
-740.1357676218
 10
985.6380157823
 20
-741.9042177404
 10
984.6097650076
 20
-743.7876593569
 10
983.7793867856
 20
-745.7347170936
 10
983.1695316694
 20
-747.6922802911
 10
982.7968349168
 20
-749.6069517284
 10
982.6714627237
 20
-751.4265041599
 10
982.7968349168
 20
-753.1013049383
 10
983.1695316694
 20
-754.5856698644
 10
983.7793867856
 20
-755.8391093325
 10
984.6097650076
 20
-756.8274327812
 10
985.4158018588
 20
-757.4077063715
  0
LWPOLYLINE
  5
241
330
1F
100
AcDbEntity
  8
0
  6
Continuous
 62
     1
370
    25
100
AcDbPolyline
 90
       21
 70
   128
 43
0.0
 10
1077.9935106391
 20
-562.3278613375
 10
1077.7198739739
 20
-562.1826666581
 10
1076.5217986474
 20
-561.7974848678
 10
1075.1865791407
 20
-561.7338765844
 10
1073.7506367613
 20
-561.9935768763
 10
1072.2531402742
 20
-562.5695017962
 10
1070.7349374798
 20
-563.4459416139
 10
1069.2374409927
 20
-564.5989893357
 10
1067.8014986133
 20
-565.9971928256
 10
1066.4662791066
 20
-567.6024127373
 10
1065.2682037801
 20
-569.3708628559
 10
1064.2399530055
 20
-571.2543044724
 10
1063.4095747834
 20
-573.2013622091
 10
1062.7997196672
 20
-575.1589254066
 10
1062.4270229146
 20
-577.0735968439
 10
1062.3016507216
 20
-578.8931492753
 10
1062.4270229146
 20
-580.5679500538
 10
1062.7997196672
 20
-582.0523149799
 10
1063.4095747834
 20
-583.305754448
 10
1064.2399530055
 20
-584.2940778967
 10
1065.0459898566
 20
-584.874351487
  0
LWPOLYLINE
  5
242
330
1F
100
AcDbEntity
  8
0
  6
Continuous
 62
     1
370
    25
100
AcDbPolyline
 90
       21
 70
   128
 43
0.0
 10
937.2564557198
 20
-806.0915902499
 10
936.9828190546
 20
-805.9463955705
 10
935.7847437281
 20
-805.5612137802
 10
934.4495242214
 20
-805.4976054968
 10
933.013581842
 20
-805.7573057886
 10
931.5160853549
 20
-806.3332307086
 10
929.9978825605
 20
-807.2096705263
 10
928.5003860734
 20
-808.3627182481
 10
927.064443694
 20
-809.760921738
 10
925.7292241873
 20
-811.3661416496
 10
924.5311488608
 20
-813.1345917683
 10
923.5028980862
 20
-815.0180333848
 10
922.6725198641
 20
-816.9650911215
 10
922.0626647479
 20
-818.922654319
 10
921.6899679953
 20
-820.8373257563
 10
921.5645958023
 20
-822.6568781877
 10
921.6899679953
 20
-824.3316789662
 10
922.0626647479
 20
-825.8160438923
 10
922.6725198641
 20
-827.0694833603
 10
923.5028980862
 20
-828.0578068091
 10
924.3089349374
 20
-828.6380803993
  0
LWPOLYLINE
  5
243
330
1F
100
AcDbEntity
  8
0
  6
Continuous
 62
     1
370
    25
100
AcDbPolyline
 90
       21
 70
   128
 43
0.0
 10
1088.7220740981
 20
-477.9136473676
 10
1088.4484374329
 20
-477.7684526881
 10
1087.2503621064
 20
-477.3832708978
 10
1085.9151425997
 20
-477.3196626145
 10
1084.4792002203
 20
-477.5793629063
 10
1082.9817037332
 20
-478.1552878262
 10
1081.4635009388
 20
-479.0317276439
 10
1079.9660044517
 20
-480.1847753657
 10
1078.5300620723
 20
-481.5829788556
 10
1077.1948425657
 20
-483.1881987673
 10
1075.9967672391
 20
-484.9566488859
 10
1074.9685164645
 20
-486.8400905024
 10
1074.1381382424
 20
-488.7871482391
 10
1073.5282831262
 20
-490.7447114366
 10
1073.1555863736
 20
-492.6593828739
 10
1073.0302141806
 20
-494.4789353053
 10
1073.1555863736
 20
-496.1537360838
 10
1073.5282831262
 20
-497.6381010099
 10
1074.1381382424
 20
-498.891540478
 10
1074.9685164645
 20
-499.8798639267
 10
1075.7745533157
 20
-500.460137517
  0
LWPOLYLINE
  5
244
330
1F
100
AcDbEntity
  8
0
  6
Continuous
 62
     1
370
    25
100
AcDbPolyline
 90
       21
 70
   128
 43
0.0
 10
869.5189719303
 20
-857.5845563847
 10
869.245335265
 20
-857.4393617053
 10
868.0472599385
 20
-857.0541799149
 10
866.7120404318
 20
-856.9905716316
 10
865.2760980524
 20
-857.2502719234
 10
863.7786015653
 20
-857.8261968434
 10
862.2603987709
 20
-858.7026366611
 10
860.7629022838
 20
-859.8556843829
 10
859.3269599045
 20
-861.2538878728
 10
857.9917403978
 20
-862.8591077844
 10
856.7936650712
 20
-864.6275579031
 10
855.7654142966
 20
-866.5109995195
 10
854.9350360745
 20
-868.4580572563
 10
854.3251809583
 20
-870.4156204538
 10
853.9524842058
 20
-872.3302918911
 10
853.8271120127
 20
-874.1498443225
 10
853.9524842058
 20
-875.824645101
 10
854.3251809583
 20
-877.3090100271
 10
854.9350360745
 20
-878.5624494951
 10
855.7654142966
 20
-879.5507729439
 10
856.5714511478
 20
-880.1310465341
  0
LWPOLYLINE
  5
245
330
1F
100
AcDbEntity
  8
0
  6
Continuous
 62
     1
370
    25
100
AcDbPolyline
 90
       21
 70
   128
 43
0.0
 10
1077.9935106391
 20
-405.886369104
 10
1077.7198739739
 20
-405.7411744245
 10
1076.5217986474
 20
-405.3559926342
 10
1075.1865791407
 20
-405.2923843509
 10
1073.7506367613
 20
-405.5520846427
 10
1072.2531402742
 20
-406.1280095627
 10
1070.7349374798
 20
-407.0044493804
 10
1069.2374409927
 20
-408.1574971022
 10
1067.8014986133
 20
-409.5557005921
 10
1066.4662791067
 20
-411.1609205037
 10
1065.2682037801
 20
-412.9293706224
 10
1064.2399530055
 20
-414.8128122388
 10
1063.4095747834
 20
-416.7598699755
 10
1062.7997196672
 20
-418.7174331731
 10
1062.4270229146
 20
-420.6321046104
 10
1062.3016507216
 20
-422.4516570418
 10
1062.4270229146
 20
-424.1264578202
 10
1062.7997196672
 20
-425.6108227464
 10
1063.4095747834
 20
-426.8642622144
 10
1064.2399530055
 20
-427.8525856632
 10
1065.0459898567
 20
-428.4328592534
  0
LWPOLYLINE
  5
246
330
1F
100
AcDbEntity
  8
0
  6
Continuous
 62
     1
370
    25
100
AcDbPolyline
 90
       21
 70
   128
 43
0.0
 10
801.7814881407
 20
-884.2996243285
 10
801.5078514754
 20
-884.1544296491
 10
800.3097761489
 20
-883.7692478588
 10
798.9745566422
 20
-883.7056395754
 10
797.5386142629
 20
-883.9653398673
 10
796.0411177757
 20
-884.5412647872
 10
794.5229149813
 20
-885.4177046049
 10
793.0254184942
 20
-886.5707523267
 10
791.5894761149
 20
-887.9689558166
 10
790.2542566082
 20
-889.5741757283
 10
789.0561812816
 20
-891.3426258469
 10
788.027930507
 20
-893.2260674634
 10
787.1975522849
 20
-895.1731252001
 10
786.5876971687
 20
-897.1306883976
 10
786.2150004162
 20
-899.0453598349
 10
786.0896282231
 20
-900.8649122663
 10
786.2150004162
 20
-902.5397130448
 10
786.5876971687
 20
-904.0240779709
 10
787.1975522849
 20
-905.277517439
 10
788.027930507
 20
-906.2658408877
 10
788.8339673582
 20
-906.846114478
  0
LWPOLYLINE
  5
247
330
1F
100
AcDbEntity
  8
0
  6
Continuous
 62
     1
370
    25
100
AcDbPolyline
 90
       21
 70
   128
 43
0.0
 10
1046.8580068038
 20
-353.2965583868
 10
1046.5843701386
 20
-353.1513637074
 10
1045.386294812
 20
-352.7661819171
 10
1044.0510753053
 20
-352.7025736337
 10
1042.615132926
 20
-352.9622739256
 10
1041.1176364389
 20
-353.5381988455
 10
1039.5994336445
 20
-354.4146386632
 10
1038.1019371573
 20
-355.567686385
 10
1036.665994778
 20
-356.9658898749
 10
1035.3307752713
 20
-358.5711097866
 10
1034.1326999448
 20
-360.3395599052
 10
1033.1044491701
 20
-362.2230015217
 10
1032.2740709481
 20
-364.1700592584
 10
1031.6642158319
 20
-366.1276224559
 10
1031.2915190793
 20
-368.0422938932
 10
1031.1661468862
 20
-369.8618463246
 10
1031.2915190793
 20
-371.5366471031
 10
1031.6642158319
 20
-373.0210120292
 10
1032.2740709481
 20
-374.2744514973
 10
1033.1044491701
 20
-375.262774946
 10
1033.9104860213
 20
-375.8430485363
  0
LWPOLYLINE
  5
248
330
1F
100
AcDbEntity
  8
0
  6
Continuous
 62
     1
370
    25
100
AcDbPolyline
 90
       21
 70
   128
 43
0.0
 10
740.6746212192
 20
-883.6217370963
 10
740.400984554
 20
-883.4765424168
 10
739.2029092274
 20
-883.0913606265
 10
737.8676897208
 20
-883.0277523432
 10
736.4317473414
 20
-883.287452635
 10
734.9342508543
 20
-883.863377555
 10
733.4160480599
 20
-884.7398173726
 10
731.9185515728
 20
-885.8928650945
 10
730.4826091934
 20
-887.2910685844
 10
729.1473896867
 20
-888.896288496
 10
727.9493143602
 20
-890.6647386147
 10
726.9210635856
 20
-892.5481802311
 10
726.0906853635
 20
-894.4952379678
 10
725.4808302473
 20
-896.4528011653
 10
725.1081334947
 20
-898.3674726026
 10
724.9827613017
 20
-900.1870250341
 10
725.1081334947
 20
-901.8618258125
 10
725.4808302473
 20
-903.3461907386
 10
726.0906853635
 20
-904.5996302067
 10
726.9210635856
 20
-905.5879536554
 10
727.7271004367
 20
-906.1682272457
  0
LWPOLYLINE
  5
249
330
1F
100
AcDbEntity
  8
0
  6
Continuous
 62
     1
370
    25
100
AcDbPolyline
 90
       21
 70
   128
 43
0.0
 10
998.3633226413
 20
-325.2920723039
 10
998.0896859761
 20
-325.1468776244
 10
996.8916106495
 20
-324.7616958341
 10
995.5563911429
 20
-324.6980875508
 10
994.1204487635
 20
-324.9577878426
 10
992.6229522764
 20
-325.5337127626
 10
991.104749482
 20
-326.4101525802
 10
989.6072529949
 20
-327.5632003021
 10
988.1713106155
 20
-328.961403792
 10
986.8360911088
 20
-330.5666237036
 10
985.6380157823
 20
-332.3350738223
 10
984.6097650076
 20
-334.2185154387
 10
983.7793867856
 20
-336.1655731754
 10
983.1695316694
 20
-338.123136373
 10
982.7968349168
 20
-340.0378078102
 10
982.6714627238
 20
-341.8573602417
 10
982.7968349168
 20
-343.5321610201
 10
983.1695316694
 20
-345.0165259462
 10
983.7793867856
 20
-346.2699654143
 10
984.6097650076
 20
-347.258288863
 10
985.4158018588
 20
-347.8385624533
  0
LWPOLYLINE
  5
24A
330
1F
100
AcDbEntity
  8
0
  6
Continuous
 62
     1
370
    25
100
AcDbPolyline
 90
       21
 70
   128
 43
0.0
 10
692.1799370568
 20
-855.6172510133
 10
691.9063003915
 20
-855.4720563339
 10
690.708225065
 20
-855.0868745435
 10
689.3730055583
 20
-855.0232662602
 10
687.9370631789
 20
-855.282966552
 10
686.4395666918
 20
-855.858891472
 10
684.9213638974
 20
-856.7353312897
 10
683.4238674103
 20
-857.8883790115
 10
681.9879250309
 20
-859.2865825014
 10
680.6527055243
 20
-860.891802413
 10
679.4546301977
 20
-862.6602525317
 10
678.4263794231
 20
-864.5436941481
 10
677.596001201
 20
-866.4907518848
 10
676.9861460848
 20
-868.4483150824
 10
676.6134493322
 20
-870.3629865197
 10
676.4880771392
 20
-872.1825389511
 10
676.6134493322
 20
-873.8573397295
 10
676.9861460848
 20
-875.3417046557
 10
677.596001201
 20
-876.5951441237
 10
678.4263794231
 20
-877.5834675725
 10
679.2324162743
 20
-878.1637411627
  0
LWPOLYLINE
  5
24B
330
1F
100
AcDbEntity
  8
0
  6
Continuous
 62
     1
370
    25
100
AcDbPolyline
 90
       21
 70
   128
 43
0.0
 10
937.2564557199
 20
-324.6141850716
 10
936.9828190546
 20
-324.4689903922
 10
935.7847437281
 20
-324.0838086018
 10
934.4495242214
 20
-324.0202003185
 10
933.0135818421
 20
-324.2799006103
 10
931.5160853549
 20
-324.8558255303
 10
929.9978825605
 20
-325.732265348
 10
928.5003860734
 20
-326.8853130698
 10
927.0644436941
 20
-328.2835165597
 10
925.7292241874
 20
-329.8887364713
 10
924.5311488608
 20
-331.65718659
 10
923.5028980862
 20
-333.5406282064
 10
922.6725198641
 20
-335.4876859431
 10
922.0626647479
 20
-337.4452491407
 10
921.6899679954
 20
-339.359920578
 10
921.5645958023
 20
-341.1794730094
 10
921.6899679954
 20
-342.8542737878
 10
922.0626647479
 20
-344.338638714
 10
922.6725198641
 20
-345.592078182
 10
923.5028980862
 20
-346.5804016308
 10
924.3089349374
 20
-347.160675221
  0
LWPOLYLINE
  5
24C
330
1F
100
AcDbEntity
  8
0
  6
Continuous
 62
     1
370
    25
100
AcDbPolyline
 90
       21
 70
   128
 43
0.0
 10
661.0444332214
 20
-803.0274402962
 10
660.7707965562
 20
-802.8822456167
 10
659.5727212296
 20
-802.4970638264
 10
658.2375017229
 20
-802.4334555431
 10
656.8015593436
 20
-802.6931558349
 10
655.3040628565
 20
-803.2690807549
 10
653.7858600621
 20
-804.1455205725
 10
652.288363575
 20
-805.2985682943
 10
650.8524211956
 20
-806.6967717842
 10
649.5172016889
 20
-808.3019916959
 10
648.3191263624
 20
-810.0704418145
 10
647.2908755877
 20
-811.953883431
 10
646.4604973657
 20
-813.9009411677
 10
645.8506422495
 20
-815.8585043652
 10
645.4779454969
 20
-817.7731758025
 10
645.3525733038
 20
-819.592728234
 10
645.4779454969
 20
-821.2675290124
 10
645.8506422495
 20
-822.7518939385
 10
646.4604973657
 20
-824.0053334066
 10
647.2908755877
 20
-824.9936568553
 10
648.0969124389
 20
-825.5739304456
  0
LWPOLYLINE
  5
24D
330
1F
100
AcDbEntity
  8
0
  6
Continuous
 62
     1
370
    25
100
AcDbPolyline
 90
       21
 70
   128
 43
0.0
 10
869.5189719303
 20
-351.3292530154
 10
869.2453352651
 20
-351.184058336
 10
868.0472599385
 20
-350.7988765457
 10
866.7120404318
 20
-350.7352682623
 10
865.2760980525
 20
-350.9949685541
 10
863.7786015654
 20
-351.5708934741
 10
862.260398771
 20
-352.4473332918
 10
860.7629022838
 20
-353.6003810136
 10
859.3269599045
 20
-354.9985845035
 10
857.9917403978
 20
-356.6038044152
 10
856.7936650713
 20
-358.3722545338
 10
855.7654142966
 20
-360.2556961503
 10
854.9350360746
 20
-362.202753887
 10
854.3251809584
 20
-364.1603170845
 10
853.9524842058
 20
-366.0749885218
 10
853.8271120127
 20
-367.8945409532
 10
853.9524842058
 20
-369.5693417317
 10
854.3251809584
 20
-371.0537066578
 10
854.9350360746
 20
-372.3071461258
 10
855.7654142966
 20
-373.2954695746
 10
856.5714511478
 20
-373.8757431649
  0
LWPOLYLINE
  5
24E
330
1F
100
AcDbEntity
  8
0
  6
Continuous
 62
     1
370
    25
100
AcDbPolyline
 90
       21
 70
   128
 43
0.0
 10
650.3158697624
 20
-731.0001620326
 10
650.0422330972
 20
-730.8549673531
 10
648.8441577706
 20
-730.4697855628
 10
647.5089382639
 20
-730.4061772795
 10
646.0729958846
 20
-730.6658775713
 10
644.5754993975
 20
-731.2418024913
 10
643.0572966031
 20
-732.118242309
 10
641.559800116
 20
-733.2712900308
 10
640.1238577366
 20
-734.6694935207
 10
638.7886382299
 20
-736.2747134323
 10
637.5905629034
 20
-738.043163551
 10
636.5623121287
 20
-739.9266051674
 10
635.7319339067
 20
-741.8736629041
 10
635.1220787905
 20
-743.8312261017
 10
634.7493820379
 20
-745.745897539
 10
634.6240098448
 20
-747.5654499704
 10
634.7493820379
 20
-749.2402507488
 10
635.1220787905
 20
-750.724615675
 10
635.7319339067
 20
-751.978055143
 10
636.5623121287
 20
-752.9663785918
 10
637.3683489799
 20
-753.546652182
  0
LWPOLYLINE
  5
24F
330
1F
100
AcDbEntity
  8
0
  6
Continuous
 62
     1
370
    25
100
AcDbPolyline
 90
       21
 70
   128
 43
0.0
 10
801.7814881407
 20
-402.8222191502
 10
801.5078514755
 20
-402.6770244708
 10
800.3097761489
 20
-402.2918426805
 10
798.9745566422
 20
-402.2282343971
 10
797.5386142629
 20
-402.4879346889
 10
796.0411177758
 20
-403.0638596089
 10
794.5229149814
 20
-403.9402994266
 10
793.0254184943
 20
-405.0933471484
 10
791.5894761149
 20
-406.4915506383
 10
790.2542566082
 20
-408.0967705499
 10
789.0561812817
 20
-409.8652206686
 10
788.027930507
 20
-411.7486622851
 10
787.197552285
 20
-413.6957200218
 10
786.5876971688
 20
-415.6532832193
 10
786.2150004162
 20
-417.5679546566
 10
786.0896282232
 20
-419.387507088
 10
786.2150004162
 20
-421.0623078665
 10
786.5876971688
 20
-422.5466727926
 10
787.197552285
 20
-423.8001122606
 10
788.027930507
 20
-424.7884357094
 10
788.8339673582
 20
-425.3687092996
  0
LWPOLYLINE
  5
250
330
1F
100
AcDbEntity
  8
0
  6
Continuous
 62
     1
370
    25
100
AcDbPolyline
 90
       21
 70
   128
 43
0.0
 10
661.0444332214
 20
-646.5859480626
 10
660.7707965562
 20
-646.4407533832
 10
659.5727212296
 20
-646.0555715928
 10
658.237501723
 20
-645.9919633095
 10
656.8015593436
 20
-646.2516636013
 10
655.3040628565
 20
-646.8275885213
 10
653.7858600621
 20
-647.704028339
 10
652.288363575
 20
-648.8570760608
 10
650.8524211956
 20
-650.2552795507
 10
649.5172016889
 20
-651.8604994623
 10
648.3191263624
 20
-653.628949581
 10
647.2908755877
 20
-655.5123911974
 10
646.4604973657
 20
-657.4594489342
 10
645.8506422495
 20
-659.4170121317
 10
645.4779454969
 20
-661.331683569
 10
645.3525733039
 20
-663.1512360004
 10
645.4779454969
 20
-664.8260367789
 10
645.8506422495
 20
-666.310401705
 10
646.4604973657
 20
-667.563841173
 10
647.2908755877
 20
-668.5521646218
 10
648.0969124389
 20
-669.132438212
  0
LWPOLYLINE
  5
251
330
1F
100
AcDbEntity
  8
0
  6
Continuous
 62
     1
370
    25
100
AcDbPolyline
 90
       21
 70
   128
 43
0.0
 10
740.6746212193
 20
-474.0525931781
 10
740.400984554
 20
-473.9073984986
 10
739.2029092275
 20
-473.5222167083
 10
737.8676897208
 20
-473.458608425
 10
736.4317473414
 20
-473.7183087168
 10
734.9342508543
 20
-474.2942336368
 10
733.4160480599
 20
-475.1706734544
 10
731.9185515728
 20
-476.3237211763
 10
730.4826091935
 20
-477.7219246662
 10
729.1473896868
 20
-479.3271445778
 10
727.9493143602
 20
-481.0955946965
 10
726.9210635856
 20
-482.9790363129
 10
726.0906853635
 20
-484.9260940496
 10
725.4808302473
 20
-486.8836572472
 10
725.1081334948
 20
-488.7983286845
 10
724.9827613017
 20
-490.6178811159
 10
725.1081334948
 20
-492.2926818943
 10
725.4808302473
 20
-493.7770468204
 10
726.0906853635
 20
-495.0304862885
 10
726.9210635856
 20
-496.0188097373
 10
727.7271004368
 20
-496.5990833275
  0
LWPOLYLINE
  5
252
330
1F
100
AcDbEntity
  8
0
  6
Continuous
 62
     1
370
    25
100
AcDbPolyline
 90
       21
 70
   128
 43
0.0
 10
692.1799370568
 20
-558.047849798
 10
691.9063003915
 20
-557.9026551185
 10
690.708225065
 20
-557.5174733282
 10
689.3730055583
 20
-557.4538650449
 10
687.937063179
 20
-557.7135653367
 10
686.4395666918
 20
-558.2894902567
 10
684.9213638974
 20
-559.1659300743
 10
683.4238674103
 20
-560.3189777962
 10
681.987925031
 20
-561.7171812861
 10
680.6527055243
 20
-563.3224011977
 10
679.4546301977
 20
-565.0908513164
 10
678.4263794231
 20
-566.9742929328
 10
677.596001201
 20
-568.9213506695
 10
676.9861460848
 20
-570.8789138671
 10
676.6134493323
 20
-572.7935853044
 10
676.4880771392
 20
-574.6131377358
 10
676.6134493323
 20
-576.2879385142
 10
676.9861460848
 20
-577.7723034404
 10
677.596001201
 20
-579.0257429084
 10
678.4263794231
 20
-580.0140663572
 10
679.2324162743
 20
-580.5943399474
  0
ENDSEC
  0
SECTION
  2
OBJECTS
  0
DICTIONARY
  5
C
330
0
100
AcDbDictionary
281
     1
  3
ACAD_GROUP
350
D
  3
ACAD_LAYOUT
350
1A
  3
ACAD_MLINESTYLE
350
17
  3
ACAD_PLOTSETTINGS
350
19
  3
ACAD_PLOTSTYLENAME
350
E
  3
ACAD_SCALELIST
350
47
  3
DWGPROPS
350
253
  0
DICTIONARY
  5
D
102
{ACAD_REACTORS
330
C
102
}
330
C
100
AcDbDictionary
281
     1
  0
DICTIONARY
  5
1A
102
{ACAD_REACTORS
330
C
102
}
330
C
100
AcDbDictionary
281
     1
  3
Layout1
350
1E
  3
Layout2
350
26
  3
Model
350
22
  0
DICTIONARY
  5
17
102
{ACAD_REACTORS
330
C
102
}
330
C
100
AcDbDictionary
281
     1
  3
Standard
350
18
  0
DICTIONARY
  5
19
102
{ACAD_REACTORS
330
C
102
}
330
C
100
AcDbDictionary
281
     1
  0
ACDBDICTIONARYWDFLT
  5
E
102
{ACAD_REACTORS
330
C
102
}
330
C
100
AcDbDictionary
281
     1
  3
Normal
350
F
100
AcDbDictionaryWithDefault
340
F
  0
DICTIONARY
  5
47
102
{ACAD_REACTORS
330
C
102
}
330
C
100
AcDbDictionary
281
     1
  3
A0
350
48
  3
A1
350
49
  3
A2
350
4A
  3
A3
350
4B
  3
A4
350
4C
  3
A5
350
4D
  3
A6
350
4E
  3
A7
350
4F
  3
A8
350
50
  3
A9
350
51
  3
B0
350
52
  3
B1
350
53
  3
B2
350
54
  3
B3
350
55
  3
B4
350
56
  3
B5
350
57
  3
B6
350
58
  3
B7
350
59
  3
B8
350
5A
  3
B9
350
5B
  3
C0
350
5C
  3
C1
350
5D
  3
C2
350
5E
  3
C3
350
5F
  3
C4
350
60
  3
C5
350
61
  3
C6
350
62
  3
C7
350
63
  3
C8
350
64
  3
C9
350
65
  3
D0
350
66
  3
D1
350
67
  3
D2
350
68
  0
XRECORD
  5
253
102
{ACAD_REACTORS
330
C
102
}
330
C
100
AcDbXrecord
280
     1
  1
DWGPROPS COOKIE
  2

  3

  4

  6

  7

  8
b.kav
  9

300
=
301
=
302
=
303
=
304
=
305
=
306
=
307
=
308
=
309
=
 40
0.0
 41
2459741.466075266
 42
2459741.466078924
  1

 90
        0
  0
LAYOUT
  5
1E
102
{ACAD_REACTORS
330
1A
102
}
330
1A
100
AcDbPlotSettings
  1

  2
none_device
  4

  6

 40
0.0
 41
0.0
 42
0.0
 43
0.0
 44
0.0
 45
0.0
 46
0.0
 47
0.0
 48
0.0
 49
0.0
140
0.0
141
0.0
142
1.0
143
1.0
 70
   688
 72
     1
 73
     0
 74
     5
  7

 75
    16
147
1.0
148
0.0
149
0.0
100
AcDbLayout
  1
Layout1
 70
     1
 71
     1
 10
0.0
 20
0.0
 11
420.0
 21
297.0
 12
0.0
 22
0.0
 32
0.0
 14
1.0000000000E+20
 24
1.0000000000E+20
 34
1.0000000000E+20
 15
-1.0000000000E+20
 25
-1.0000000000E+20
 35
-1.0000000000E+20
146
0.0
 13
0.0
 23
0.0
 33
0.0
 16
1.0
 26
0.0
 36
0.0
 17
0.0
 27
1.0
 37
0.0
 76
     0
330
1B
  0
LAYOUT
  5
26
102
{ACAD_REACTORS
330
1A
102
}
330
1A
100
AcDbPlotSettings
  1

  2
none_device
  4

  6

 40
0.0
 41
0.0
 42
0.0
 43
0.0
 44
0.0
 45
0.0
 46
0.0
 47
0.0
 48
0.0
 49
0.0
140
0.0
141
0.0
142
1.0
143
1.0
 70
   688
 72
     1
 73
     0
 74
     5
  7

 75
    16
147
1.0
148
0.0
149
0.0
100
AcDbLayout
  1
Layout2
 70
     1
 71
     2
 10
0.0
 20
0.0
 11
0.0
 21
0.0
 12
0.0
 22
0.0
 32
0.0
 14
0.0
 24
0.0
 34
0.0
 15
0.0
 25
0.0
 35
0.0
146
0.0
 13
0.0
 23
0.0
 33
0.0
 16
1.0
 26
0.0
 36
0.0
 17
0.0
 27
1.0
 37
0.0
 76
     0
330
23
  0
LAYOUT
  5
22
102
{ACAD_REACTORS
330
1A
102
}
330
1A
100
AcDbPlotSettings
  1

  2
none_device
  4
Letter_(8.50_x_11.00_Inches)
  6

 40
6.35
 41
6.35
 42
6.35000508
 43
6.35000508
 44
215.9
 45
279.4
 46
0.0
 47
0.0
 48
0.0
 49
0.0
140
0.0
141
0.0
142
1.0
143
1.0
 70
  1712
 72
     1
 73
     0
 74
     0
  7

 75
     0
147
1.0
148
0.0
149
0.0
100
AcDbLayout
  1
Model
 70
     1
 71
     0
 10
0.0
 20
0.0
 11
279.4
 21
215.9
 12
0.0
 22
0.0
 32
0.0
 14
0.0
 24
0.0
 34
0.0
 15
279.4
 25
215.9
 35
0.0
146
0.0
 13
0.0
 23
0.0
 33
0.0
 16
1.0
 26
0.0
 36
0.0
 17
0.0
 27
1.0
 37
0.0
 76
     0
330
1F
331
29
  0
MLINESTYLE
  5
18
102
{ACAD_REACTORS
330
17
102
}
330
17
100
AcDbMlineStyle
  2
Standard
 70
     0
  3

 62
   256
 51
90.0
 52
90.0
 71
     2
 49
0.5
 62
   256
  6
BYLAYER
 49
-0.5
 62
   256
  6
BYLAYER
  0
ACDBPLACEHOLDER
  5
F
102
{ACAD_REACTORS
330
E
102
}
330
E
  0
SCALE
  5
48
102
{ACAD_REACTORS
330
47
102
}
330
47
100
AcDbScale
 70
     0
300
1:1
140
1.0
141
1.0
290
     1
  0
SCALE
  5
49
102
{ACAD_REACTORS
330
47
102
}
330
47
100
AcDbScale
 70
     0
300
1:2
140
1.0
141
2.0
290
     0
  0
SCALE
  5
4A
102
{ACAD_REACTORS
330
47
102
}
330
47
100
AcDbScale
 70
     0
300
1:4
140
1.0
141
4.0
290
     0
  0
SCALE
  5
4B
102
{ACAD_REACTORS
330
47
102
}
330
47
100
AcDbScale
 70
     0
300
1:5
140
1.0
141
5.0
290
     0
  0
SCALE
  5
4C
102
{ACAD_REACTORS
330
47
102
}
330
47
100
AcDbScale
 70
     0
300
1:8
140
1.0
141
8.0
290
     0
  0
SCALE
  5
4D
102
{ACAD_REACTORS
330
47
102
}
330
47
100
AcDbScale
 70
     0
300
1:10
140
1.0
141
10.0
290
     0
  0
SCALE
  5
4E
102
{ACAD_REACTORS
330
47
102
}
330
47
100
AcDbScale
 70
     0
300
1:16
140
1.0
141
16.0
290
     0
  0
SCALE
  5
4F
102
{ACAD_REACTORS
330
47
102
}
330
47
100
AcDbScale
 70
     0
300
1:20
140
1.0
141
20.0
290
     0
  0
SCALE
  5
50
102
{ACAD_REACTORS
330
47
102
}
330
47
100
AcDbScale
 70
     0
300
1:30
140
1.0
141
30.0
290
     0
  0
SCALE
  5
51
102
{ACAD_REACTORS
330
47
102
}
330
47
100
AcDbScale
 70
     0
300
1:40
140
1.0
141
40.0
290
     0
  0
SCALE
  5
52
102
{ACAD_REACTORS
330
47
102
}
330
47
100
AcDbScale
 70
     0
300
1:50
140
1.0
141
50.0
290
     0
  0
SCALE
  5
53
102
{ACAD_REACTORS
330
47
102
}
330
47
100
AcDbScale
 70
     0
300
1:100
140
1.0
141
100.0
290
     0
  0
SCALE
  5
54
102
{ACAD_REACTORS
330
47
102
}
330
47
100
AcDbScale
 70
     0
300
2:1
140
2.0
141
1.0
290
     0
  0
SCALE
  5
55
102
{ACAD_REACTORS
330
47
102
}
330
47
100
AcDbScale
 70
     0
300
4:1
140
4.0
141
1.0
290
     0
  0
SCALE
  5
56
102
{ACAD_REACTORS
330
47
102
}
330
47
100
AcDbScale
 70
     0
300
8:1
140
8.0
141
1.0
290
     0
  0
SCALE
  5
57
102
{ACAD_REACTORS
330
47
102
}
330
47
100
AcDbScale
 70
     0
300
10:1
140
10.0
141
1.0
290
     0
  0
SCALE
  5
58
102
{ACAD_REACTORS
330
47
102
}
330
47
100
AcDbScale
 70
     0
300
100:1
140
100.0
141
1.0
290
     0
  0
SCALE
  5
59
102
{ACAD_REACTORS
330
47
102
}
330
47
100
AcDbScale
 70
     0
300
1/128" = 1'-0"
140
0.0078125
141
12.0
290
     0
  0
SCALE
  5
5A
102
{ACAD_REACTORS
330
47
102
}
330
47
100
AcDbScale
 70
     0
300
1/64" = 1'-0"
140
0.015625
141
12.0
290
     0
  0
SCALE
  5
5B
102
{ACAD_REACTORS
330
47
102
}
330
47
100
AcDbScale
 70
     0
300
1/32" = 1'-0"
140
0.03125
141
12.0
290
     0
  0
SCALE
  5
5C
102
{ACAD_REACTORS
330
47
102
}
330
47
100
AcDbScale
 70
     0
300
1/16" = 1'-0"
140
0.0625
141
12.0
290
     0
  0
SCALE
  5
5D
102
{ACAD_REACTORS
330
47
102
}
330
47
100
AcDbScale
 70
     0
300
3/32" = 1'-0"
140
0.09375
141
12.0
290
     0
  0
SCALE
  5
5E
102
{ACAD_REACTORS
330
47
102
}
330
47
100
AcDbScale
 70
     0
300
1/8" = 1'-0"
140
0.125
141
12.0
290
     0
  0
SCALE
  5
5F
102
{ACAD_REACTORS
330
47
102
}
330
47
100
AcDbScale
 70
     0
300
3/16" = 1'-0"
140
0.1875
141
12.0
290
     0
  0
SCALE
  5
60
102
{ACAD_REACTORS
330
47
102
}
330
47
100
AcDbScale
 70
     0
300
1/4" = 1'-0"
140
0.25
141
12.0
290
     0
  0
SCALE
  5
61
102
{ACAD_REACTORS
330
47
102
}
330
47
100
AcDbScale
 70
     0
300
3/8" = 1'-0"
140
0.375
141
12.0
290
     0
  0
SCALE
  5
62
102
{ACAD_REACTORS
330
47
102
}
330
47
100
AcDbScale
 70
     0
300
1/2" = 1'-0"
140
0.5
141
12.0
290
     0
  0
SCALE
  5
63
102
{ACAD_REACTORS
330
47
102
}
330
47
100
AcDbScale
 70
     0
300
3/4" = 1'-0"
140
0.75
141
12.0
290
     0
  0
SCALE
  5
64
102
{ACAD_REACTORS
330
47
102
}
330
47
100
AcDbScale
 70
     0
300
1" = 1'-0"
140
1.0
141
12.0
290
     0
  0
SCALE
  5
65
102
{ACAD_REACTORS
330
47
102
}
330
47
100
AcDbScale
 70
     0
300
1-1/2" = 1'-0"
140
1.5
141
12.0
290
     0
  0
SCALE
  5
66
102
{ACAD_REACTORS
330
47
102
}
330
47
100
AcDbScale
 70
     0
300
3" = 1'-0"
140
3.0
141
12.0
290
     0
  0
SCALE
  5
67
102
{ACAD_REACTORS
330
47
102
}
330
47
100
AcDbScale
 70
     0
300
6" = 1'-0"
140
6.0
141
12.0
290
     0
  0
SCALE
  5
68
102
{ACAD_REACTORS
330
47
102
}
330
47
100
AcDbScale
 70
     0
300
1'-0" = 1'-0"
140
12.0
141
12.0
290
     0
  0
ENDSEC
  0
EOF
